999
dxflib 3.17.0.0
  0
SECTION
  2
HEADER
  9
$ACADVER
  1
AC1015
  9
$HANDSEED
  5
FFFF
  9
$ANGBASE
 50
0.0
  9
$ANGDIR
 70
0
  9
$ATTMODE
 70
0
  9
$AUNITS
 70
0
  9
$AUPREC
 70
2
  9
$CECOLOR
 62
178
  9
$CELTSCALE
 40
1.0
  9
$CHAMFERA
 40
0.0
  9
$CHAMFERB
 40
0.0
  9
$CHAMFERC
 40
0.0
  9
$CHAMFERD
 40
0.0
  9
$CMLJUST
 70
0
  9
$CMLSCALE
 40
20.0
  9
$DIMADEC
 70
0
  9
$DIMALT
 70
0
  9
$DIMALTD
 70
3
  9
$DIMALTF
 40
0.03937
  9
$DIMALTRND
 40
0.0
  9
$DIMALTTD
 70
3
  9
$DIMALTTZ
 70
0
  9
$DIMALTU
 70
2
  9
$DIMALTZ
 70
0
  9
$DIMAPOST
  1

  9
$DIMASZ
 40
2.5
  9
$DIMATFIT
 70
3
  9
$DIMAUNIT
 70
0
  9
$DIMAZIN
 70
0
  9
$DIMBLK
  1

  9
$DIMBLK1
  1

  9
$DIMBLK2
  1

  9
$DIMCEN
 40
2.5
  9
$DIMCLRD
 70
178
  9
$DIMCLRE
 70
178
  9
$DIMCLRT
 70
178
  9
$DIMDEC
 70
4
  9
$DIMDLE
 40
0.0
  9
$DIMDLI
 40
3.75
  9
$DIMDSEP
 70
44
  9
$DIMEXE
 40
1.25
  9
$DIMEXO
 40
0.625
  9
$DIMFRAC
 70
0
  9
$DIMGAP
 40
0.625
  9
$DIMJUST
 70
0
  9
$DIMLDRBLK
  1

  9
$DIMLFAC
 40
1.0
  9
$DIMLIM
 70
0
  9
$DIMLUNIT
 70
2
  9
$DIMLWD
 70
-2
  9
$DIMLWE
 70
-2
  9
$DIMPOST
  1

  9
$DIMRND
 40
0.0
  9
$DIMSAH
 70
0
  9
$DIMSCALE
 40
1.0
  9
$DIMSD1
 70
0
  9
$DIMSD2
 70
0
  9
$DIMSE1
 70
0
  9
$DIMSE2
 70
0
  9
$DIMSOXD
 70
0
  9
$DIMTAD
 70
1
  9
$DIMTDEC
 70
2
  9
$DIMTFAC
 40
1.0
  9
$DIMTIH
 70
0
  9
$DIMTIX
 70
0
  9
$DIMTM
 40
0.0
  9
$DIMTOFL
 70
1
  9
$DIMTOH
 70
0
  9
$DIMTOL
 70
0
  9
$DIMTOLJ
 70
0
  9
$DIMTP
 40
0.0
  9
$DIMTSZ
 40
0.0
  9
$DIMTVP
 40
0.0
  9
$DIMTXSTY
  7
Standard
  9
$DIMTXT
 40
2.5
  9
$DIMTZIN
 70
8
  9
$DIMUPT
 70
0
  9
$DIMZIN
 70
1
  9
$DISPSILH
 70
0
  9
$DWGCODEPAGE
  3
ANSI_1252
  9
$ELEVATION
 40
0.0
  9
$EXTMAX
 10
271.0
 20
81.0
 30
0.0
  9
$EXTMIN
 10
0.0
 20
0.0
 30
0.0
  9
$FILLETRAD
 40
0.0
  9
$FILLMODE
 70
0
  9
$INSBASE
 10
0.0
 20
0.0
 30
0.0
  9
$INSUNITS
 70
4
  9
$LIMCHECK
 70
0
  9
$LIMMAX
 10
420.0
 20
297.0
  9
$LIMMIN
 10
0.0
 20
0.0
  9
$LTSCALE
 40
1.0
  9
$LUNITS
 70
2
  9
$LUPREC
 70
4
  9
$MAXACTVP
 70
64
  9
$MEASUREMENT
 70
1
  9
$MIRRTEXT
 70
0
  9
$ORTHOMODE
 70
0
  9
$PDMODE
 70
34
  9
$PDSIZE
 40
0.0
  9
$PELEVATION
 40
0.0
  9
$PEXTMAX
 10
0.0
 20
0.0
 30
0.0
  9
$PEXTMIN
 10
0.0
 20
0.0
 30
0.0
  9
$PINSBASE
 10
12.5
 20
120.852398523985201
 30
0.0
  9
$PLIMCHECK
 70
0
  9
$PLIMMAX
 10
277.0
 20
202.5
  9
$PLIMMIN
 10
-20.0
 20
-7.5
  9
$PLINEGEN
 70
0
  9
$PLINEWID
 40
0.0
  9
$PROXYGRAPHICS
 70
1
  9
$PSLTSCALE
 70
1
  9
$PUCSNAME
  2

  9
$PUCSORG
 10
0.0
 20
0.0
 30
0.0
  9
$PUCSXDIR
 10
1.0
 20
0.0
 30
0.0
  9
$PUCSYDIR
 10
0.0
 20
1.0
 30
0.0
  9
$QTEXTMODE
 70
0
  9
$REGENMODE
 70
1
  9
$SHADEDGE
 70
3
  9
$SHADEDIF
 70
70
  9
$SKETCHINC
 40
1.0
  9
$SKPOLY
 70
0
  9
$SPLFRAME
 70
1
  9
$SPLINESEGS
 70
8
  9
$SPLINETYPE
 70
6
  9
$SURFTAB1
 70
6
  9
$SURFTAB2
 70
6
  9
$SURFTYPE
 70
6
  9
$SURFU
 70
6
  9
$SURFV
 70
6
  9
$TEXTSIZE
 40
1.0
  9
$TEXTSTYLE
  7
Standard
  9
$THICKNESS
 40
0.0
  9
$TILEMODE
 70
1
  9
$TRACEWID
 40
15.6799999999999997
  9
$TREEDEPTH
 70
3020
  9
$UCSNAME
  2

  9
$UCSORG
 10
0.0
 20
0.0
 30
0.0
  9
$UCSXDIR
 10
1.0
 20
0.0
 30
0.0
  9
$UCSYDIR
 10
0.0
 20
1.0
 30
0.0
  9
$UNITMODE
 70
0
  9
$USERI1
 70
0
  9
$USERI2
 70
0
  9
$USERI3
 70
0
  9
$USERI4
 70
0
  9
$USERI5
 70
0
  9
$USERR1
 40
0.0
  9
$USERR2
 40
0.0
  9
$USERR3
 40
0.0
  9
$USERR4
 40
0.0
  9
$USERR5
 40
0.0
  9
$USRTIMER
 70
1
  9
$VISRETAIN
 70
1
  0
ENDSEC
  0
SECTION
  2
TABLES
  0
TABLE
  2
VPORT
  5
8
100
AcDbSymbolTable
 70
1
  0
VPORT
  5
30
100
AcDbSymbolTableRecord
100
AcDbViewportTableRecord
  2
*Active
 70
0
 10
0.0
 20
0.0
 11
1.0
 21
1.0
 12
286.3055555555554861
 22
148.5
 13
0.0
 23
0.0
 14
10.0
 24
10.0
 15
10.0
 25
10.0
 16
0.0
 26
0.0
 36
1.0
 17
0.0
 27
0.0
 37
0.0
 40
297.0
 41
1.92798353909465
 42
50.0
 43
0.0
 44
0.0
 50
0.0
 51
0.0
 71
0
 72
100
 73
1
 74
3
 75
1
 76
1
 77
0
 78
0
281
0
 65
1
110
0.0
120
0.0
130
0.0
111
1.0
121
0.0
131
0.0
112
0.0
122
1.0
132
0.0
 79
0
146
0.0
  0
ENDTAB
  0
TABLE
  2
LTYPE
  5
5
100
AcDbSymbolTable
 70
56
  0
LTYPE
  5
16
100
AcDbSymbolTableRecord
100
AcDbLinetypeTableRecord
  2
Continuous
 70
0
  3
Solid line
 72
65
 73
0
 40
0.0
  0
LTYPE
  5
31
100
AcDbSymbolTableRecord
100
AcDbLinetypeTableRecord
  2
FENCELINE2
 70
0
  3
Fenceline square ----[]-----[]----[]-----[]----[]---
 72
65
 73
2
 40
8.8900000000000006
 49
6.3499999999999996
 74
0
 49
-2.54
 74
0
  0
LTYPE
  5
32
100
AcDbSymbolTableRecord
100
AcDbLinetypeTableRecord
  2
ACAD_ISO12W100
 70
0
  3
ISO dash double-dot __ . . __ . . __ . . __ . . 
 72
65
 73
6
 40
21.0
 49
12.0
 74
0
 49
-2.9500000000000002
 74
0
 49
0.1
 74
0
 49
-2.9000000000000004
 74
0
 49
0.1
 74
0
 49
-2.9500000000000002
 74
0
  0
LTYPE
  5
33
100
AcDbSymbolTableRecord
100
AcDbLinetypeTableRecord
  2
BORDERX2
 70
0
  3
Border (2x) ____  ____  .  ____  ____  .  ___
 72
65
 73
6
 40
88.8999999999999773
 49
25.3999999999999986
 74
0
 49
-12.6999999999999993
 74
0
 49
25.3999999999999986
 74
0
 49
-12.6499999999999986
 74
0
 49
0.1
 74
0
 49
-12.6499999999999986
 74
0
  0
LTYPE
  5
34
100
AcDbSymbolTableRecord
100
AcDbLinetypeTableRecord
  2
ACAD_ISO13W100
 70
0
  3
ISO double-dash double-dot __ __ . . __ __ . . _
 72
65
 73
8
 40
36.0000000000000071
 49
12.0
 74
0
 49
-3.0
 74
0
 49
12.0
 74
0
 49
-2.9500000000000002
 74
0
 49
0.1
 74
0
 49
-2.9000000000000004
 74
0
 49
0.1
 74
0
 49
-2.9500000000000002
 74
0
  0
LTYPE
  5
35
100
AcDbSymbolTableRecord
100
AcDbLinetypeTableRecord
  2
GAS_LINE
 70
0
  3
Gas line ----GAS----GAS----GAS----GAS----GAS----GAS--
 72
65
 73
2
 40
17.7800000000000011
 49
12.6999999999999993
 74
0
 49
-5.0800000000000001
 74
0
  0
LTYPE
  5
36
100
AcDbSymbolTableRecord
100
AcDbLinetypeTableRecord
  2
DASHDOT
 70
0
  3
Dash dot __ . __ . __ . __ . __ . __ . __ . __
 72
65
 73
4
 40
25.4000000000000021
 49
12.6999999999999993
 74
0
 49
-6.2999999999999998
 74
0
 49
0.1
 74
0
 49
-6.2999999999999998
 74
0
  0
LTYPE
  5
37
100
AcDbSymbolTableRecord
100
AcDbLinetypeTableRecord
  2
CENTER
 70
0
  3
Center ____ _ ____ _ ____ _ ____ _ ____ _ ____
 72
65
 73
4
 40
50.8000000000000043
 49
31.75
 74
0
 49
-6.3499999999999996
 74
0
 49
6.3499999999999996
 74
0
 49
-6.3499999999999996
 74
0
  0
LTYPE
  5
38
100
AcDbSymbolTableRecord
100
AcDbLinetypeTableRecord
  2
BORDERTINY
 70
0
  3
Border (.15x) __.__.__.__.__.__.__.__.__.__.__.
 72
65
 73
6
 40
6.6674999999999995
 49
1.905
 74
0
 49
-0.9525
 74
0
 49
1.905
 74
0
 49
-0.9025
 74
0
 49
0.1
 74
0
 49
-0.9025
 74
0
  0
LTYPE
  5
39
100
AcDbSymbolTableRecord
100
AcDbLinetypeTableRecord
  2
DIVIDE2
 70
0
  3
Divide (.5x) __..__..__..__..__..__..__..__.._
 72
65
 73
6
 40
15.8749999999999982
 49
6.3499999999999996
 74
0
 49
-3.125
 74
0
 49
0.1
 74
0
 49
-3.0750000000000002
 74
0
 49
0.1
 74
0
 49
-3.125
 74
0
  0
LTYPE
  5
3A
100
AcDbSymbolTableRecord
100
AcDbLinetypeTableRecord
  2
DIVIDE
 70
0
  3
Divide ____ . . ____ . . ____ . . ____ . . ____
 72
65
 73
6
 40
31.7500000000000036
 49
12.6999999999999993
 74
0
 49
-6.2999999999999998
 74
0
 49
0.1
 74
0
 49
-6.25
 74
0
 49
0.1
 74
0
 49
-6.2999999999999998
 74
0
  0
LTYPE
  5
3B
100
AcDbSymbolTableRecord
100
AcDbLinetypeTableRecord
  2
DRAINAGE2
 70
0
  3
Drainage reversed----<----<----<----
 72
65
 73
1
 40
5.0800000000000001
 49
5.0800000000000001
 74
0
  0
LTYPE
  5
3C
100
AcDbSymbolTableRecord
100
AcDbLinetypeTableRecord
  2
ACAD_ISO11W100
 70
0
  3
ISO double-dash dot __ __ . __ __ . __ __ . __ _
 72
65
 73
6
 40
33.0
 49
12.0
 74
0
 49
-3.0
 74
0
 49
12.0
 74
0
 49
-2.9500000000000002
 74
0
 49
0.1
 74
0
 49
-2.9500000000000002
 74
0
  0
LTYPE
  5
3D
100
AcDbSymbolTableRecord
100
AcDbLinetypeTableRecord
  2
HIDDENX2
 70
0
  3
Hidden (2x) ____ ____ ____ ____ ____ ____ ____ 
 72
65
 73
2
 40
19.0499999999999972
 49
12.6999999999999993
 74
0
 49
-6.3499999999999996
 74
0
  0
LTYPE
  5
3E
100
AcDbSymbolTableRecord
100
AcDbLinetypeTableRecord
  2
ACAD_ISO04W100
 70
0
  3
ISO long-dash dot ____ . ____ . ____ . ____ . _
 72
65
 73
4
 40
30.0
 49
24.0
 74
0
 49
-2.9500000000000002
 74
0
 49
0.1
 74
0
 49
-2.9500000000000002
 74
0
  0
LTYPE
  5
3F
100
AcDbSymbolTableRecord
100
AcDbLinetypeTableRecord
  2
ACAD_ISO14W100
 70
0
  3
ISO dash triple-dot __ . . . __ . . . __ . . . _
 72
65
 73
8
 40
24.0000000000000036
 49
12.0
 74
0
 49
-2.9500000000000002
 74
0
 49
0.1
 74
0
 49
-2.9000000000000004
 74
0
 49
0.1
 74
0
 49
-2.9000000000000004
 74
0
 49
0.1
 74
0
 49
-2.9500000000000002
 74
0
  0
LTYPE
  5
40
100
AcDbSymbolTableRecord
100
AcDbLinetypeTableRecord
  2
BATTING
 70
0
  3
Batting SSSSSSSSSSSSSSSSSSSSSSSSSSSSSSSSSSSSSSSSSSSSSSS
 72
65
 73
2
 40
2.5425400000000002
 49
0.00254
 74
0
 49
-2.54
 74
0
  0
LTYPE
  5
41
100
AcDbSymbolTableRecord
100
AcDbLinetypeTableRecord
  2
PHANTOM
 70
0
  3
Phantom ______  __  __  ______  __  __  ______ 
 72
65
 73
6
 40
63.5000000000000071
 49
31.75
 74
0
 49
-6.3499999999999996
 74
0
 49
6.3499999999999996
 74
0
 49
-6.3499999999999996
 74
0
 49
6.3499999999999996
 74
0
 49
-6.3499999999999996
 74
0
  0
LTYPE
  5
42
100
AcDbSymbolTableRecord
100
AcDbLinetypeTableRecord
  2
DIVIDETINY
 70
0
  3
Divide (.15x) __..__..__..__..__..__..__..__.._
 72
65
 73
6
 40
4.7625000000000002
 49
1.905
 74
0
 49
-0.9025
 74
0
 49
0.1
 74
0
 49
-0.8524999999999999
 74
0
 49
0.1
 74
0
 49
-0.9025
 74
0
  0
LTYPE
  5
43
100
AcDbSymbolTableRecord
100
AcDbLinetypeTableRecord
  2
CENTERX2
 70
0
  3
Center (2x) ________  __  ________  __  _____
 72
65
 73
4
 40
101.6000000000000085
 49
63.5
 74
0
 49
-12.6999999999999993
 74
0
 49
12.6999999999999993
 74
0
 49
-12.6999999999999993
 74
0
  0
LTYPE
  5
44
100
AcDbSymbolTableRecord
100
AcDbLinetypeTableRecord
  2
HOT_WATER_SUPPLY
 70
0
  3
Hot water supply ---- HW ---- HW ---- HW ----
 72
65
 73
2
 40
17.7800000000000011
 49
12.6999999999999993
 74
0
 49
-5.0800000000000001
 74
0
  0
LTYPE
  5
45
100
AcDbSymbolTableRecord
100
AcDbLinetypeTableRecord
  2
CENTER2
 70
0
  3
Center (.5x) ___ _ ___ _ ___ _ ___ _ ___ _ ___
 72
65
 73
4
 40
28.5750000000000028
 49
19.0500000000000007
 74
0
 49
-3.1749999999999998
 74
0
 49
3.1749999999999998
 74
0
 49
-3.1749999999999998
 74
0
  0
LTYPE
  5
15
100
AcDbSymbolTableRecord
100
AcDbLinetypeTableRecord
  2
ByLayer
 70
0
  3

 72
65
 73
0
 40
0.0
  0
LTYPE
  5
46
100
AcDbSymbolTableRecord
100
AcDbLinetypeTableRecord
  2
ACAD_ISO09W100
 70
0
  3
ISO long-dash double-short-dash ____ __ __ ____
 72
65
 73
6
 40
45.0
 49
24.0
 74
0
 49
-3.0
 74
0
 49
6.0
 74
0
 49
-3.0
 74
0
 49
6.0
 74
0
 49
-3.0
 74
0
  0
LTYPE
  5
47
100
AcDbSymbolTableRecord
100
AcDbLinetypeTableRecord
  2
ACAD_ISO07W100
 70
0
  3
ISO dot . . . . . . . . . . . . . . . . . . . . 
 72
65
 73
2
 40
3.0
 49
0.1
 74
0
 49
-2.8999999999999999
 74
0
  0
LTYPE
  5
48
100
AcDbSymbolTableRecord
100
AcDbLinetypeTableRecord
  2
HIDDEN
 70
0
  3
Hidden __ __ __ __ __ __ __ __ __ __ __ __ __ __
 72
65
 73
2
 40
9.5249999999999986
 49
6.3499999999999996
 74
0
 49
-3.1749999999999998
 74
0
  0
LTYPE
  5
49
100
AcDbSymbolTableRecord
100
AcDbLinetypeTableRecord
  2
ACAD_ISO06W100
 70
0
  3
ISO long-dash triple-dot ____ ... ____ ... ____
 72
65
 73
8
 40
36.0000000000000071
 49
24.0
 74
0
 49
-2.9500000000000002
 74
0
 49
0.1
 74
0
 49
-2.9000000000000004
 74
0
 49
0.1
 74
0
 49
-2.9000000000000004
 74
0
 49
0.1
 74
0
 49
-2.9500000000000002
 74
0
  0
LTYPE
  5
4A
100
AcDbSymbolTableRecord
100
AcDbLinetypeTableRecord
  2
DOTX2
 70
0
  3
Dot (2x) .  .  .  .  .  .  .  .  .  .  .  .  .
 72
65
 73
2
 40
12.6999999999999993
 49
0.1
 74
0
 49
-12.5999999999999996
 74
0
  0
LTYPE
  5
4B
100
AcDbSymbolTableRecord
100
AcDbLinetypeTableRecord
  2
ACAD_ISO10W100
 70
0
  3
ISO dash dot __ . __ . __ . __ . __ . __ . __ . 
 72
65
 73
4
 40
18.0
 49
12.0
 74
0
 49
-2.9500000000000002
 74
0
 49
0.1
 74
0
 49
-2.9500000000000002
 74
0
  0
LTYPE
  5
4C
100
AcDbSymbolTableRecord
100
AcDbLinetypeTableRecord
  2
ACAD_ISO03W100
 70
0
  3
ISO dash space __    __    __    __    __    __
 72
65
 73
2
 40
30.0
 49
12.0
 74
0
 49
-18.0
 74
0
  0
LTYPE
  5
4D
100
AcDbSymbolTableRecord
100
AcDbLinetypeTableRecord
  2
DASHDOTX2
 70
0
  3
Dash dot (2x) ____  .  ____  .  ____  .  ___
 72
65
 73
4
 40
50.7999999999999972
 49
25.3999999999999986
 74
0
 49
-12.6499999999999986
 74
0
 49
0.1
 74
0
 49
-12.6499999999999986
 74
0
  0
LTYPE
  5
4E
100
AcDbSymbolTableRecord
100
AcDbLinetypeTableRecord
  2
DRAINAGE
 70
0
  3
Drainage ---->---->---->----
 72
65
 73
1
 40
5.0800000000000001
 49
5.0800000000000001
 74
0
  0
LTYPE
  5
4F
100
AcDbSymbolTableRecord
100
AcDbLinetypeTableRecord
  2
DOT
 70
0
  3
Dot . . . . . . . . . . . . . . . . . . . . . .
 72
65
 73
2
 40
6.3499999999999996
 49
0.1
 74
0
 49
-6.25
 74
0
  0
LTYPE
  5
50
100
AcDbSymbolTableRecord
100
AcDbLinetypeTableRecord
  2
ACAD_ISO05W100
 70
0
  3
ISO long-dash double-dot ____ .. ____ .. ____ . 
 72
65
 73
6
 40
33.0000000000000071
 49
24.0
 74
0
 49
-2.9500000000000002
 74
0
 49
0.1
 74
0
 49
-2.9000000000000004
 74
0
 49
0.1
 74
0
 49
-2.9500000000000002
 74
0
  0
LTYPE
  5
51
100
AcDbSymbolTableRecord
100
AcDbLinetypeTableRecord
  2
DASHED
 70
0
  3
Dashed _ _ _ _ _ _ _ _ _ _ _ _ _ _ _ _ _
 72
65
 73
2
 40
19.0499999999999972
 49
12.6999999999999993
 74
0
 49
-6.3499999999999996
 74
0
  0
LTYPE
  5
52
100
AcDbSymbolTableRecord
100
AcDbLinetypeTableRecord
  2
CENTERTINY
 70
0
  3
Center (.15x) ___ _ ___ _ ___ _ ___ _ ___ _ ___
 72
65
 73
4
 40
7.6199999999999992
 49
4.7625000000000002
 74
0
 49
-0.9525
 74
0
 49
0.9525
 74
0
 49
-0.9525
 74
0
  0
LTYPE
  5
53
100
AcDbSymbolTableRecord
100
AcDbLinetypeTableRecord
  2
PHANTOMX2
 70
0
  3
Phantom (2x) ____________    ____    ____   _
 72
65
 73
6
 40
127.0000000000000142
 49
63.5
 74
0
 49
-12.6999999999999993
 74
0
 49
12.6999999999999993
 74
0
 49
-12.6999999999999993
 74
0
 49
12.6999999999999993
 74
0
 49
-12.6999999999999993
 74
0
  0
LTYPE
  5
54
100
AcDbSymbolTableRecord
100
AcDbLinetypeTableRecord
  2
ZIGZAG
 70
0
  3
Zig zag /\/\/\/\/\/\/\/\/\/\/\/\/\/\/\/\/\/\/\/\/\/\/\/
 72
65
 73
2
 40
5.0825399999999998
 49
0.00254
 74
0
 49
-5.0800000000000001
 74
0
  0
LTYPE
  5
55
100
AcDbSymbolTableRecord
100
AcDbLinetypeTableRecord
  2
DOT2
 70
0
  3
Dot (.5x) .....................................
 72
65
 73
2
 40
3.1749999999999998
 49
0.1
 74
0
 49
-3.0749999999999997
 74
0
  0
LTYPE
  5
56
100
AcDbSymbolTableRecord
100
AcDbLinetypeTableRecord
  2
DASHDOT2
 70
0
  3
Dash dot (.5x) _._._._._._._._._._._._._._._.
 72
65
 73
4
 40
12.6999999999999993
 49
6.3499999999999996
 74
0
 49
-3.125
 74
0
 49
0.1
 74
0
 49
-3.125
 74
0
  0
LTYPE
  5
57
100
AcDbSymbolTableRecord
100
AcDbLinetypeTableRecord
  2
ACAD_ISO15W100
 70
0
  3
ISO double-dash triple-dot __ __ . . . __ __ . .
 72
65
 73
10
 40
39.0000000000000071
 49
12.0
 74
0
 49
-3.0
 74
0
 49
12.0
 74
0
 49
-2.9500000000000002
 74
0
 49
0.1
 74
0
 49
-2.9000000000000004
 74
0
 49
0.1
 74
0
 49
-2.9000000000000004
 74
0
 49
0.1
 74
0
 49
-2.9500000000000002
 74
0
  0
LTYPE
  5
14
100
AcDbSymbolTableRecord
100
AcDbLinetypeTableRecord
  2
ByBlock
 70
0
  3

 72
65
 73
0
 40
0.0
  0
LTYPE
  5
58
100
AcDbSymbolTableRecord
100
AcDbLinetypeTableRecord
  2
BORDER
 70
0
  3
Border __ __ . __ __ . __ __ . __ __ . __ __ .
 72
65
 73
6
 40
44.4499999999999957
 49
12.6999999999999993
 74
0
 49
-6.3499999999999996
 74
0
 49
12.6999999999999993
 74
0
 49
-6.2999999999999998
 74
0
 49
0.1
 74
0
 49
-6.2999999999999998
 74
0
  0
LTYPE
  5
59
100
AcDbSymbolTableRecord
100
AcDbLinetypeTableRecord
  2
FENCELINE1
 70
0
  3
Fenceline circle ----0-----0----0-----0----0-----0--
 72
65
 73
2
 40
8.8900000000000006
 49
6.3499999999999996
 74
0
 49
-2.54
 74
0
  0
LTYPE
  5
5A
100
AcDbSymbolTableRecord
100
AcDbLinetypeTableRecord
  2
TRACKS
 70
0
  3
Tracks -|-|-|-|-|-|-|-|-|-|-|-|-|-|-|-|-|-|-|-|-|-|-|-|-
 72
65
 73
1
 40
3.8100000000000001
 49
3.8100000000000001
 74
0
  0
LTYPE
  5
5B
100
AcDbSymbolTableRecord
100
AcDbLinetypeTableRecord
  2
HIDDEN2
 70
0
  3
Hidden (.5x) _ _ _ _ _ _ _ _ _ _ _ _ _ _ _ _ _ 
 72
65
 73
2
 40
4.7624999999999993
 49
3.1749999999999998
 74
0
 49
-1.5874999999999999
 74
0
  0
LTYPE
  5
5C
100
AcDbSymbolTableRecord
100
AcDbLinetypeTableRecord
  2
DASHEDTINY
 70
0
  3
Dashed (.15x) _ _ _ _ _ _ _ _ _ _ _ _ _ _ _ _ _
 72
65
 73
2
 40
2.8574999999999999
 49
1.905
 74
0
 49
-0.9525
 74
0
  0
LTYPE
  5
5D
100
AcDbSymbolTableRecord
100
AcDbLinetypeTableRecord
  2
DASHDOTTINY
 70
0
  3
Dash dot (.15x) _._._._._._._._._._._._._._._.
 72
65
 73
4
 40
3.8100000000000001
 49
1.905
 74
0
 49
-0.9025
 74
0
 49
0.1
 74
0
 49
-0.9025
 74
0
  0
LTYPE
  5
5E
100
AcDbSymbolTableRecord
100
AcDbLinetypeTableRecord
  2
ACAD_ISO02W100
 70
0
  3
ISO dash __ __ __ __ __ __ __ __ __ __ __ __ __
 72
65
 73
2
 40
15.0
 49
12.0
 74
0
 49
-3.0
 74
0
  0
LTYPE
  5
5F
100
AcDbSymbolTableRecord
100
AcDbLinetypeTableRecord
  2
DIVIDEX2
 70
0
  3
Divide (2x) ________  .  .  ________  .  .  _
 72
65
 73
6
 40
63.5
 49
25.3999999999999986
 74
0
 49
-12.6499999999999986
 74
0
 49
0.1
 74
0
 49
-12.5999999999999979
 74
0
 49
0.1
 74
0
 49
-12.6499999999999986
 74
0
  0
LTYPE
  5
60
100
AcDbSymbolTableRecord
100
AcDbLinetypeTableRecord
  2
DOTTINY
 70
0
  3
Dot (.15x) .....................................
 72
65
 73
2
 40
0.9525
 49
0.1
 74
0
 49
-0.8525
 74
0
  0
LTYPE
  5
61
100
AcDbSymbolTableRecord
100
AcDbLinetypeTableRecord
  2
PHANTOM2
 70
0
  3
Phantom (.5x) ___ _ _ ___ _ _ ___ _ _ ___ _ _
 72
65
 73
6
 40
31.7500000000000036
 49
15.875
 74
0
 49
-3.1749999999999998
 74
0
 49
3.1749999999999998
 74
0
 49
-3.1749999999999998
 74
0
 49
3.1749999999999998
 74
0
 49
-3.1749999999999998
 74
0
  0
LTYPE
  5
62
100
AcDbSymbolTableRecord
100
AcDbLinetypeTableRecord
  2
DASHED2
 70
0
  3
Dashed (.5x) _ _ _ _ _ _ _ _ _ _ _ _ _ _ _ _ _
 72
65
 73
2
 40
9.5249999999999986
 49
6.3499999999999996
 74
0
 49
-3.1749999999999998
 74
0
  0
LTYPE
  5
63
100
AcDbSymbolTableRecord
100
AcDbLinetypeTableRecord
  2
DASHEDX2
 70
0
  3
Dashed (2x) ____  ____  ____  ____  ____  ___
 72
65
 73
2
 40
38.0999999999999943
 49
25.3999999999999986
 74
0
 49
-12.6999999999999993
 74
0
  0
LTYPE
  5
64
100
AcDbSymbolTableRecord
100
AcDbLinetypeTableRecord
  2
BORDER2
 70
0
  3
Border (.5x) __.__.__.__.__.__.__.__.__.__.__.
 72
65
 73
6
 40
22.2250000000000014
 49
6.3499999999999996
 74
0
 49
-3.1749999999999998
 74
0
 49
6.3499999999999996
 74
0
 49
-3.125
 74
0
 49
0.1
 74
0
 49
-3.125
 74
0
  0
LTYPE
  5
65
100
AcDbSymbolTableRecord
100
AcDbLinetypeTableRecord
  2
ACAD_ISO08W100
 70
0
  3
ISO long-dash short-dash ____ __ ____ __ ____ _
 72
65
 73
4
 40
36.0
 49
24.0
 74
0
 49
-3.0
 74
0
 49
6.0
 74
0
 49
-3.0
 74
0
  0
ENDTAB
  0
TABLE
  2
LAYER
  5
2
100
AcDbSymbolTable
 70
7
  0
LAYER
  5
10
100
AcDbSymbolTableRecord
100
AcDbLayerTableRecord
  2
0
 70
1
 62
7
420
16777215
  6
Continuous
370
-3
390
F
  0
LAYER
  5
66
100
AcDbSymbolTableRecord
100
AcDbLayerTableRecord
  2
labels_black
 70
0
 62
7
420
16777215
  6
Continuous
370
35
390
F
  0
LAYER
  5
67
100
AcDbSymbolTableRecord
100
AcDbLayerTableRecord
  2
ns_b
 70
1
 62
7
420
16777215
  6
Continuous
370
25
390
F
  0
LAYER
  5
68
100
AcDbSymbolTableRecord
100
AcDbLayerTableRecord
  2
labels_white
 70
0
 62
7
420
16777215
  6
Continuous
370
70
390
F
  0
LAYER
  5
69
100
AcDbSymbolTableRecord
100
AcDbLayerTableRecord
  2
caps
 70
0
 62
7
420
16777215
  6
Continuous
370
0
390
F
  0
LAYER
  5
6A
100
AcDbSymbolTableRecord
100
AcDbLayerTableRecord
  2
cuts
 70
1
 62
7
420
16777215
  6
Continuous
370
0
390
F
  0
LAYER
  5
6B
100
AcDbSymbolTableRecord
100
AcDbLayerTableRecord
  2
ns_w
 70
1
 62
7
420
0
  6
Continuous
370
25
390
F
  0
ENDTAB
  0
TABLE
  2
STYLE
  5
3
100
AcDbSymbolTable
 70
124
  0
STYLE
  5
6C
100
AcDbSymbolTableRecord
100
AcDbTextStyleTableRecord
  2
Standard
 70
0
 40
0.0
 41
1.0
 50
0.0
 71
0
 42
2.5
  3

  4

1001
ACAD
1000
txt
1071
0
  0
STYLE
  5
6D
100
AcDbSymbolTableRecord
100
AcDbTextStyleTableRecord
  2
textstyle0
 70
0
 40
0.0
 41
1.0
 50
0.0
 71
0
 42
6.0
  3

  4

1001
ACAD
1000
Technic
1071
0
  0
STYLE
  5
6E
100
AcDbSymbolTableRecord
100
AcDbTextStyleTableRecord
  2
textstyle1
 70
0
 40
0.0
 41
1.0
 50
0.0
 71
0
 42
6.0
  3

  4

1001
ACAD
1000
Technic
1071
0
  0
STYLE
  5
6F
100
AcDbSymbolTableRecord
100
AcDbTextStyleTableRecord
  2
textstyle2
 70
0
 40
0.0
 41
1.0
 50
0.0
 71
0
 42
6.0
  3

  4

1001
ACAD
1000
Technic
1071
0
  0
STYLE
  5
70
100
AcDbSymbolTableRecord
100
AcDbTextStyleTableRecord
  2
textstyle3
 70
0
 40
0.0
 41
1.0
 50
0.0
 71
0
 42
6.0
  3

  4

1001
ACAD
1000
Technic
1071
0
  0
STYLE
  5
71
100
AcDbSymbolTableRecord
100
AcDbTextStyleTableRecord
  2
textstyle4
 70
0
 40
0.0
 41
1.0
 50
0.0
 71
0
 42
6.0
  3

  4

1001
ACAD
1000
Technic
1071
0
  0
STYLE
  5
72
100
AcDbSymbolTableRecord
100
AcDbTextStyleTableRecord
  2
textstyle5
 70
0
 40
0.0
 41
1.0
 50
0.0
 71
0
 42
6.0
  3

  4

1001
ACAD
1000
Technic
1071
0
  0
STYLE
  5
73
100
AcDbSymbolTableRecord
100
AcDbTextStyleTableRecord
  2
textstyle6
 70
0
 40
0.0
 41
1.0
 50
0.0
 71
0
 42
6.0
  3

  4

1001
ACAD
1000
Technic
1071
0
  0
STYLE
  5
74
100
AcDbSymbolTableRecord
100
AcDbTextStyleTableRecord
  2
textstyle7
 70
0
 40
0.0
 41
1.0
 50
0.0
 71
0
 42
6.0
  3

  4

1001
ACAD
1000
Technic
1071
0
  0
STYLE
  5
75
100
AcDbSymbolTableRecord
100
AcDbTextStyleTableRecord
  2
textstyle8
 70
0
 40
0.0
 41
1.0
 50
0.0
 71
0
 42
6.0
  3

  4

1001
ACAD
1000
Technic
1071
0
  0
STYLE
  5
76
100
AcDbSymbolTableRecord
100
AcDbTextStyleTableRecord
  2
textstyle9
 70
0
 40
0.0
 41
1.0
 50
0.0
 71
0
 42
6.0
  3

  4

1001
ACAD
1000
Technic
1071
0
  0
STYLE
  5
77
100
AcDbSymbolTableRecord
100
AcDbTextStyleTableRecord
  2
textstyle10
 70
0
 40
0.0
 41
1.0
 50
0.0
 71
0
 42
6.0
  3

  4

1001
ACAD
1000
Technic
1071
0
  0
STYLE
  5
78
100
AcDbSymbolTableRecord
100
AcDbTextStyleTableRecord
  2
textstyle11
 70
0
 40
0.0
 41
1.0
 50
0.0
 71
0
 42
6.0
  3

  4

1001
ACAD
1000
Technic
1071
0
  0
STYLE
  5
79
100
AcDbSymbolTableRecord
100
AcDbTextStyleTableRecord
  2
textstyle12
 70
0
 40
0.0
 41
1.0
 50
0.0
 71
0
 42
6.0
  3

  4

1001
ACAD
1000
Technic
1071
0
  0
STYLE
  5
7A
100
AcDbSymbolTableRecord
100
AcDbTextStyleTableRecord
  2
textstyle13
 70
0
 40
0.0
 41
1.0
 50
0.0
 71
0
 42
6.0
  3

  4

1001
ACAD
1000
Technic
1071
0
  0
STYLE
  5
7B
100
AcDbSymbolTableRecord
100
AcDbTextStyleTableRecord
  2
textstyle14
 70
0
 40
0.0
 41
1.0
 50
0.0
 71
0
 42
6.0
  3

  4

1001
ACAD
1000
Technic
1071
0
  0
STYLE
  5
7C
100
AcDbSymbolTableRecord
100
AcDbTextStyleTableRecord
  2
textstyle15
 70
0
 40
0.0
 41
1.0
 50
0.0
 71
0
 42
6.0
  3

  4

1001
ACAD
1000
Technic
1071
0
  0
STYLE
  5
7D
100
AcDbSymbolTableRecord
100
AcDbTextStyleTableRecord
  2
textstyle16
 70
0
 40
0.0
 41
1.0
 50
0.0
 71
0
 42
2.5
  3

  4

1001
ACAD
1000
Technic
1071
0
  0
STYLE
  5
7E
100
AcDbSymbolTableRecord
100
AcDbTextStyleTableRecord
  2
textstyle17
 70
0
 40
0.0
 41
1.0
 50
0.0
 71
0
 42
2.5
  3

  4

1001
ACAD
1000
Technic
1071
0
  0
STYLE
  5
7F
100
AcDbSymbolTableRecord
100
AcDbTextStyleTableRecord
  2
textstyle18
 70
0
 40
0.0
 41
1.0
 50
0.0
 71
0
 42
2.5
  3

  4

1001
ACAD
1000
Technic
1071
0
  0
STYLE
  5
80
100
AcDbSymbolTableRecord
100
AcDbTextStyleTableRecord
  2
textstyle19
 70
0
 40
0.0
 41
1.0
 50
0.0
 71
0
 42
2.5
  3

  4

1001
ACAD
1000
Technic
1071
0
  0
STYLE
  5
81
100
AcDbSymbolTableRecord
100
AcDbTextStyleTableRecord
  2
textstyle20
 70
0
 40
0.0
 41
1.0
 50
0.0
 71
0
 42
2.5
  3

  4

1001
ACAD
1000
Technic
1071
0
  0
STYLE
  5
82
100
AcDbSymbolTableRecord
100
AcDbTextStyleTableRecord
  2
textstyle21
 70
0
 40
0.0
 41
1.0
 50
0.0
 71
0
 42
2.5
  3

  4

1001
ACAD
1000
Technic
1071
0
  0
STYLE
  5
83
100
AcDbSymbolTableRecord
100
AcDbTextStyleTableRecord
  2
textstyle22
 70
0
 40
0.0
 41
1.0
 50
0.0
 71
0
 42
2.5
  3

  4

1001
ACAD
1000
Technic
1071
0
  0
STYLE
  5
84
100
AcDbSymbolTableRecord
100
AcDbTextStyleTableRecord
  2
textstyle23
 70
0
 40
0.0
 41
1.0
 50
0.0
 71
0
 42
2.5
  3

  4

1001
ACAD
1000
Technic
1071
0
  0
STYLE
  5
85
100
AcDbSymbolTableRecord
100
AcDbTextStyleTableRecord
  2
textstyle24
 70
0
 40
0.0
 41
1.0
 50
0.0
 71
0
 42
2.5
  3

  4

1001
ACAD
1000
Technic
1071
0
  0
STYLE
  5
86
100
AcDbSymbolTableRecord
100
AcDbTextStyleTableRecord
  2
textstyle25
 70
0
 40
0.0
 41
1.0
 50
0.0
 71
0
 42
2.5
  3

  4

1001
ACAD
1000
Technic
1071
0
  0
STYLE
  5
87
100
AcDbSymbolTableRecord
100
AcDbTextStyleTableRecord
  2
textstyle26
 70
0
 40
0.0
 41
1.0
 50
0.0
 71
0
 42
2.5
  3

  4

1001
ACAD
1000
Technic
1071
0
  0
STYLE
  5
88
100
AcDbSymbolTableRecord
100
AcDbTextStyleTableRecord
  2
textstyle27
 70
0
 40
0.0
 41
1.0
 50
0.0
 71
0
 42
2.5
  3

  4

1001
ACAD
1000
Technic
1071
0
  0
STYLE
  5
89
100
AcDbSymbolTableRecord
100
AcDbTextStyleTableRecord
  2
textstyle28
 70
0
 40
0.0
 41
1.0
 50
0.0
 71
0
 42
2.5
  3

  4

1001
ACAD
1000
Technic
1071
0
  0
STYLE
  5
8A
100
AcDbSymbolTableRecord
100
AcDbTextStyleTableRecord
  2
textstyle29
 70
0
 40
0.0
 41
1.0
 50
0.0
 71
0
 42
2.5
  3

  4

1001
ACAD
1000
Technic
1071
0
  0
STYLE
  5
8B
100
AcDbSymbolTableRecord
100
AcDbTextStyleTableRecord
  2
textstyle30
 70
0
 40
0.0
 41
1.0
 50
0.0
 71
0
 42
2.5
  3

  4

1001
ACAD
1000
Technic
1071
0
  0
STYLE
  5
8C
100
AcDbSymbolTableRecord
100
AcDbTextStyleTableRecord
  2
textstyle31
 70
0
 40
0.0
 41
1.0
 50
0.0
 71
0
 42
2.5
  3

  4

1001
ACAD
1000
Technic
1071
0
  0
STYLE
  5
8D
100
AcDbSymbolTableRecord
100
AcDbTextStyleTableRecord
  2
textstyle32
 70
0
 40
0.0
 41
1.0
 50
0.0
 71
0
 42
2.5
  3

  4

1001
ACAD
1000
Technic
1071
0
  0
STYLE
  5
8E
100
AcDbSymbolTableRecord
100
AcDbTextStyleTableRecord
  2
textstyle33
 70
0
 40
0.0
 41
1.0
 50
0.0
 71
0
 42
2.5
  3

  4

1001
ACAD
1000
Technic
1071
0
  0
STYLE
  5
8F
100
AcDbSymbolTableRecord
100
AcDbTextStyleTableRecord
  2
textstyle34
 70
0
 40
0.0
 41
1.0
 50
0.0
 71
0
 42
2.5
  3

  4

1001
ACAD
1000
Technic
1071
0
  0
STYLE
  5
90
100
AcDbSymbolTableRecord
100
AcDbTextStyleTableRecord
  2
textstyle35
 70
0
 40
0.0
 41
1.0
 50
0.0
 71
0
 42
2.5
  3

  4

1001
ACAD
1000
Technic
1071
0
  0
STYLE
  5
91
100
AcDbSymbolTableRecord
100
AcDbTextStyleTableRecord
  2
textstyle36
 70
0
 40
0.0
 41
1.0
 50
0.0
 71
0
 42
6.0
  3

  4

1001
ACAD
1000
Technic
1071
0
  0
STYLE
  5
92
100
AcDbSymbolTableRecord
100
AcDbTextStyleTableRecord
  2
textstyle37
 70
0
 40
0.0
 41
1.0
 50
0.0
 71
0
 42
6.0
  3

  4

1001
ACAD
1000
Technic
1071
0
  0
STYLE
  5
93
100
AcDbSymbolTableRecord
100
AcDbTextStyleTableRecord
  2
textstyle38
 70
0
 40
0.0
 41
1.0
 50
0.0
 71
0
 42
2.5
  3

  4

1001
ACAD
1000
Technic
1071
0
  0
STYLE
  5
94
100
AcDbSymbolTableRecord
100
AcDbTextStyleTableRecord
  2
textstyle39
 70
0
 40
0.0
 41
1.0
 50
0.0
 71
0
 42
2.5
  3

  4

1001
ACAD
1000
Technic
1071
0
  0
STYLE
  5
95
100
AcDbSymbolTableRecord
100
AcDbTextStyleTableRecord
  2
textstyle40
 70
0
 40
0.0
 41
1.0
 50
0.0
 71
0
 42
6.0
  3

  4

1001
ACAD
1000
Technic
1071
0
  0
STYLE
  5
96
100
AcDbSymbolTableRecord
100
AcDbTextStyleTableRecord
  2
textstyle41
 70
0
 40
0.0
 41
1.0
 50
0.0
 71
0
 42
6.0
  3

  4

1001
ACAD
1000
Technic
1071
0
  0
STYLE
  5
97
100
AcDbSymbolTableRecord
100
AcDbTextStyleTableRecord
  2
textstyle42
 70
0
 40
0.0
 41
1.0
 50
0.0
 71
0
 42
6.0
  3

  4

1001
ACAD
1000
Technic
1071
0
  0
STYLE
  5
98
100
AcDbSymbolTableRecord
100
AcDbTextStyleTableRecord
  2
textstyle43
 70
0
 40
0.0
 41
1.0
 50
0.0
 71
0
 42
6.0
  3

  4

1001
ACAD
1000
Technic
1071
0
  0
STYLE
  5
99
100
AcDbSymbolTableRecord
100
AcDbTextStyleTableRecord
  2
textstyle44
 70
0
 40
0.0
 41
1.0
 50
0.0
 71
0
 42
6.0
  3

  4

1001
ACAD
1000
Technic
1071
0
  0
STYLE
  5
9A
100
AcDbSymbolTableRecord
100
AcDbTextStyleTableRecord
  2
textstyle45
 70
0
 40
0.0
 41
1.0
 50
0.0
 71
0
 42
6.0
  3

  4

1001
ACAD
1000
Technic
1071
0
  0
STYLE
  5
9B
100
AcDbSymbolTableRecord
100
AcDbTextStyleTableRecord
  2
textstyle46
 70
0
 40
0.0
 41
1.0
 50
0.0
 71
0
 42
6.0
  3

  4

1001
ACAD
1000
Technic
1071
0
  0
STYLE
  5
9C
100
AcDbSymbolTableRecord
100
AcDbTextStyleTableRecord
  2
textstyle47
 70
0
 40
0.0
 41
1.0
 50
0.0
 71
0
 42
6.0
  3

  4

1001
ACAD
1000
Technic
1071
0
  0
STYLE
  5
9D
100
AcDbSymbolTableRecord
100
AcDbTextStyleTableRecord
  2
textstyle48
 70
0
 40
0.0
 41
1.0
 50
0.0
 71
0
 42
6.0
  3

  4

1001
ACAD
1000
Nesovremenny
1071
0
  0
STYLE
  5
9E
100
AcDbSymbolTableRecord
100
AcDbTextStyleTableRecord
  2
textstyle49
 70
0
 40
0.0
 41
1.0
 50
0.0
 71
0
 42
6.0
  3

  4

1001
ACAD
1000
Nesovremenny
1071
0
  0
STYLE
  5
9F
100
AcDbSymbolTableRecord
100
AcDbTextStyleTableRecord
  2
textstyle50
 70
0
 40
0.0
 41
1.0
 50
0.0
 71
0
 42
6.0
  3

  4

1001
ACAD
1000
Nesovremenny
1071
0
  0
STYLE
  5
A0
100
AcDbSymbolTableRecord
100
AcDbTextStyleTableRecord
  2
textstyle51
 70
0
 40
0.0
 41
1.0
 50
0.0
 71
0
 42
6.0
  3

  4

1001
ACAD
1000
Nesovremenny
1071
0
  0
STYLE
  5
A1
100
AcDbSymbolTableRecord
100
AcDbTextStyleTableRecord
  2
textstyle52
 70
0
 40
0.0
 41
1.0
 50
0.0
 71
0
 42
6.0
  3

  4

1001
ACAD
1000
Nesovremenny
1071
0
  0
STYLE
  5
A2
100
AcDbSymbolTableRecord
100
AcDbTextStyleTableRecord
  2
textstyle53
 70
0
 40
0.0
 41
1.0
 50
0.0
 71
0
 42
6.0
  3

  4

1001
ACAD
1000
Nesovremenny
1071
0
  0
STYLE
  5
A3
100
AcDbSymbolTableRecord
100
AcDbTextStyleTableRecord
  2
textstyle54
 70
0
 40
0.0
 41
1.0
 50
0.0
 71
0
 42
6.0
  3

  4

1001
ACAD
1000
Nesovremenny
1071
0
  0
STYLE
  5
A4
100
AcDbSymbolTableRecord
100
AcDbTextStyleTableRecord
  2
textstyle55
 70
0
 40
0.0
 41
1.0
 50
0.0
 71
0
 42
6.0
  3

  4

1001
ACAD
1000
Nesovremenny
1071
0
  0
STYLE
  5
A5
100
AcDbSymbolTableRecord
100
AcDbTextStyleTableRecord
  2
textstyle56
 70
0
 40
0.0
 41
1.0
 50
0.0
 71
0
 42
6.0
  3

  4

1001
ACAD
1000
Nesovremenny
1071
0
  0
STYLE
  5
A6
100
AcDbSymbolTableRecord
100
AcDbTextStyleTableRecord
  2
textstyle57
 70
0
 40
0.0
 41
1.0
 50
0.0
 71
0
 42
6.0
  3

  4

1001
ACAD
1000
Nesovremenny
1071
0
  0
STYLE
  5
A7
100
AcDbSymbolTableRecord
100
AcDbTextStyleTableRecord
  2
textstyle58
 70
0
 40
0.0
 41
1.0
 50
0.0
 71
0
 42
6.0
  3

  4

1001
ACAD
1000
Nesovremenny
1071
0
  0
STYLE
  5
A8
100
AcDbSymbolTableRecord
100
AcDbTextStyleTableRecord
  2
textstyle59
 70
0
 40
0.0
 41
1.0
 50
0.0
 71
0
 42
6.0
  3

  4

1001
ACAD
1000
Nesovremenny
1071
0
  0
STYLE
  5
A9
100
AcDbSymbolTableRecord
100
AcDbTextStyleTableRecord
  2
textstyle60
 70
0
 40
0.0
 41
1.0
 50
0.0
 71
0
 42
6.0
  3

  4

1001
ACAD
1000
Nesovremenny
1071
0
  0
STYLE
  5
AA
100
AcDbSymbolTableRecord
100
AcDbTextStyleTableRecord
  2
textstyle61
 70
0
 40
0.0
 41
1.0
 50
0.0
 71
0
 42
6.0
  3

  4

1001
ACAD
1000
Nesovremenny
1071
0
  0
STYLE
  5
AB
100
AcDbSymbolTableRecord
100
AcDbTextStyleTableRecord
  2
textstyle62
 70
0
 40
0.0
 41
1.0
 50
0.0
 71
0
 42
6.0
  3

  4

1001
ACAD
1000
Nesovremenny
1071
0
  0
STYLE
  5
AC
100
AcDbSymbolTableRecord
100
AcDbTextStyleTableRecord
  2
textstyle63
 70
0
 40
0.0
 41
1.0
 50
0.0
 71
0
 42
6.0
  3

  4

1001
ACAD
1000
Nesovremenny
1071
0
  0
STYLE
  5
AD
100
AcDbSymbolTableRecord
100
AcDbTextStyleTableRecord
  2
textstyle64
 70
0
 40
0.0
 41
1.0
 50
0.0
 71
0
 42
6.0
  3

  4

1001
ACAD
1000
Nesovremenny
1071
0
  0
STYLE
  5
AE
100
AcDbSymbolTableRecord
100
AcDbTextStyleTableRecord
  2
textstyle65
 70
0
 40
0.0
 41
1.0
 50
0.0
 71
0
 42
2.5
  3

  4

1001
ACAD
1000
Technic
1071
0
  0
STYLE
  5
AF
100
AcDbSymbolTableRecord
100
AcDbTextStyleTableRecord
  2
textstyle66
 70
0
 40
0.0
 41
1.0
 50
0.0
 71
0
 42
6.0
  3

  4

1001
ACAD
1000
Nesovremenny
1071
0
  0
STYLE
  5
B0
100
AcDbSymbolTableRecord
100
AcDbTextStyleTableRecord
  2
textstyle67
 70
0
 40
0.0
 41
1.0
 50
0.0
 71
0
 42
6.0
  3

  4

1001
ACAD
1000
Nesovremenny
1071
0
  0
STYLE
  5
B1
100
AcDbSymbolTableRecord
100
AcDbTextStyleTableRecord
  2
textstyle68
 70
0
 40
0.0
 41
1.0
 50
0.0
 71
0
 42
2.5
  3

  4

1001
ACAD
1000
Technic
1071
0
  0
STYLE
  5
B2
100
AcDbSymbolTableRecord
100
AcDbTextStyleTableRecord
  2
textstyle69
 70
0
 40
0.0
 41
1.0
 50
0.0
 71
0
 42
2.5
  3

  4

1001
ACAD
1000
Technic
1071
0
  0
STYLE
  5
B3
100
AcDbSymbolTableRecord
100
AcDbTextStyleTableRecord
  2
textstyle70
 70
0
 40
0.0
 41
1.0
 50
0.0
 71
0
 42
2.5
  3

  4

1001
ACAD
1000
Technic
1071
0
  0
STYLE
  5
B4
100
AcDbSymbolTableRecord
100
AcDbTextStyleTableRecord
  2
textstyle71
 70
0
 40
0.0
 41
1.0
 50
0.0
 71
0
 42
2.5
  3

  4

1001
ACAD
1000
Technic
1071
0
  0
STYLE
  5
B5
100
AcDbSymbolTableRecord
100
AcDbTextStyleTableRecord
  2
textstyle72
 70
0
 40
0.0
 41
1.0
 50
0.0
 71
0
 42
2.5
  3

  4

1001
ACAD
1000
Technic
1071
0
  0
STYLE
  5
B6
100
AcDbSymbolTableRecord
100
AcDbTextStyleTableRecord
  2
textstyle73
 70
0
 40
0.0
 41
1.0
 50
0.0
 71
0
 42
2.5
  3

  4

1001
ACAD
1000
Technic
1071
0
  0
STYLE
  5
B7
100
AcDbSymbolTableRecord
100
AcDbTextStyleTableRecord
  2
textstyle74
 70
0
 40
0.0
 41
1.0
 50
0.0
 71
0
 42
2.5
  3

  4

1001
ACAD
1000
Technic
1071
0
  0
STYLE
  5
B8
100
AcDbSymbolTableRecord
100
AcDbTextStyleTableRecord
  2
textstyle75
 70
0
 40
0.0
 41
1.0
 50
0.0
 71
0
 42
2.5
  3

  4

1001
ACAD
1000
Technic
1071
0
  0
STYLE
  5
B9
100
AcDbSymbolTableRecord
100
AcDbTextStyleTableRecord
  2
textstyle76
 70
0
 40
0.0
 41
1.0
 50
0.0
 71
0
 42
2.5
  3

  4

1001
ACAD
1000
Technic
1071
0
  0
STYLE
  5
BA
100
AcDbSymbolTableRecord
100
AcDbTextStyleTableRecord
  2
textstyle77
 70
0
 40
0.0
 41
1.0
 50
0.0
 71
0
 42
2.5
  3

  4

1001
ACAD
1000
Technic
1071
0
  0
STYLE
  5
BB
100
AcDbSymbolTableRecord
100
AcDbTextStyleTableRecord
  2
textstyle78
 70
0
 40
0.0
 41
1.0
 50
0.0
 71
0
 42
2.5
  3

  4

1001
ACAD
1000
Technic
1071
0
  0
STYLE
  5
BC
100
AcDbSymbolTableRecord
100
AcDbTextStyleTableRecord
  2
textstyle79
 70
0
 40
0.0
 41
1.0
 50
0.0
 71
0
 42
2.5
  3

  4

1001
ACAD
1000
Technic
1071
0
  0
STYLE
  5
BD
100
AcDbSymbolTableRecord
100
AcDbTextStyleTableRecord
  2
textstyle80
 70
0
 40
0.0
 41
1.0
 50
0.0
 71
0
 42
3.5
  3

  4

1001
ACAD
1000
Nesovremenny
1071
0
  0
STYLE
  5
BE
100
AcDbSymbolTableRecord
100
AcDbTextStyleTableRecord
  2
textstyle81
 70
0
 40
0.0
 41
1.0
 50
0.0
 71
0
 42
3.5
  3

  4

1001
ACAD
1000
Nesovremenny
1071
0
  0
STYLE
  5
BF
100
AcDbSymbolTableRecord
100
AcDbTextStyleTableRecord
  2
textstyle82
 70
0
 40
0.0
 41
1.0
 50
0.0
 71
0
 42
3.0
  3

  4

1001
ACAD
1000
Nesovremenny
1071
0
  0
STYLE
  5
C0
100
AcDbSymbolTableRecord
100
AcDbTextStyleTableRecord
  2
textstyle83
 70
0
 40
0.0
 41
1.0
 50
0.0
 71
0
 42
3.0
  3

  4

1001
ACAD
1000
Nesovremenny
1071
0
  0
STYLE
  5
C1
100
AcDbSymbolTableRecord
100
AcDbTextStyleTableRecord
  2
textstyle84
 70
0
 40
0.0
 41
1.0
 50
0.0
 71
0
 42
6.0
  3

  4

1001
ACAD
1000
Nesovremenny
1071
0
  0
STYLE
  5
C2
100
AcDbSymbolTableRecord
100
AcDbTextStyleTableRecord
  2
textstyle85
 70
0
 40
0.0
 41
1.0
 50
0.0
 71
0
 42
3.5
  3

  4

1001
ACAD
1000
Nesovremenny
1071
0
  0
STYLE
  5
C3
100
AcDbSymbolTableRecord
100
AcDbTextStyleTableRecord
  2
textstyle86
 70
0
 40
0.0
 41
1.0
 50
0.0
 71
0
 42
3.5
  3

  4

1001
ACAD
1000
Nesovremenny
1071
0
  0
STYLE
  5
C4
100
AcDbSymbolTableRecord
100
AcDbTextStyleTableRecord
  2
textstyle87
 70
0
 40
0.0
 41
1.0
 50
0.0
 71
0
 42
3.8999999999999999
  3

  4

1001
ACAD
1000
Nesovremenny
1071
0
  0
STYLE
  5
C5
100
AcDbSymbolTableRecord
100
AcDbTextStyleTableRecord
  2
textstyle88
 70
0
 40
0.0
 41
1.0
 50
0.0
 71
0
 42
3.5
  3

  4

1001
ACAD
1000
Nesovremenny
1071
0
  0
STYLE
  5
C6
100
AcDbSymbolTableRecord
100
AcDbTextStyleTableRecord
  2
textstyle89
 70
0
 40
0.0
 41
1.0
 50
0.0
 71
0
 42
3.5
  3

  4

1001
ACAD
1000
Nesovremenny
1071
0
  0
STYLE
  5
C7
100
AcDbSymbolTableRecord
100
AcDbTextStyleTableRecord
  2
textstyle90
 70
0
 40
0.0
 41
1.0
 50
0.0
 71
0
 42
3.5
  3

  4

1001
ACAD
1000
Nesovremenny
1071
0
  0
STYLE
  5
C8
100
AcDbSymbolTableRecord
100
AcDbTextStyleTableRecord
  2
textstyle91
 70
0
 40
0.0
 41
1.0
 50
0.0
 71
0
 42
3.5
  3

  4

1001
ACAD
1000
Nesovremenny
1071
0
  0
STYLE
  5
C9
100
AcDbSymbolTableRecord
100
AcDbTextStyleTableRecord
  2
textstyle92
 70
0
 40
0.0
 41
1.0
 50
0.0
 71
0
 42
3.5
  3

  4

1001
ACAD
1000
Nesovremenny
1071
0
  0
STYLE
  5
CA
100
AcDbSymbolTableRecord
100
AcDbTextStyleTableRecord
  2
textstyle93
 70
0
 40
0.0
 41
1.0
 50
0.0
 71
0
 42
3.5
  3

  4

1001
ACAD
1000
Nesovremenny
1071
0
  0
STYLE
  5
CB
100
AcDbSymbolTableRecord
100
AcDbTextStyleTableRecord
  2
textstyle94
 70
0
 40
0.0
 41
1.0
 50
0.0
 71
0
 42
3.5
  3

  4

1001
ACAD
1000
Nesovremenny
1071
0
  0
STYLE
  5
CC
100
AcDbSymbolTableRecord
100
AcDbTextStyleTableRecord
  2
textstyle95
 70
0
 40
0.0
 41
1.0
 50
0.0
 71
0
 42
3.5
  3

  4

1001
ACAD
1000
Nesovremenny
1071
0
  0
STYLE
  5
CD
100
AcDbSymbolTableRecord
100
AcDbTextStyleTableRecord
  2
textstyle96
 70
0
 40
0.0
 41
1.0
 50
0.0
 71
0
 42
3.5
  3

  4

1001
ACAD
1000
Nesovremenny
1071
0
  0
STYLE
  5
CE
100
AcDbSymbolTableRecord
100
AcDbTextStyleTableRecord
  2
textstyle97
 70
0
 40
0.0
 41
1.0
 50
0.0
 71
0
 42
4.0
  3

  4

1001
ACAD
1000
Nesovremenny
1071
0
  0
STYLE
  5
CF
100
AcDbSymbolTableRecord
100
AcDbTextStyleTableRecord
  2
textstyle98
 70
0
 40
0.0
 41
1.0
 50
0.0
 71
0
 42
3.5
  3

  4

1001
ACAD
1000
Nesovremenny
1071
0
  0
STYLE
  5
D0
100
AcDbSymbolTableRecord
100
AcDbTextStyleTableRecord
  2
textstyle99
 70
0
 40
0.0
 41
1.0
 50
0.0
 71
0
 42
3.5
  3

  4

1001
ACAD
1000
Nesovremenny
1071
0
  0
STYLE
  5
D1
100
AcDbSymbolTableRecord
100
AcDbTextStyleTableRecord
  2
textstyle100
 70
0
 40
0.0
 41
1.0
 50
0.0
 71
0
 42
4.0
  3

  4

1001
ACAD
1000
Nesovremenny
1071
0
  0
STYLE
  5
D2
100
AcDbSymbolTableRecord
100
AcDbTextStyleTableRecord
  2
textstyle101
 70
0
 40
0.0
 41
1.0
 50
0.0
 71
0
 42
4.0
  3

  4

1001
ACAD
1000
Nesovremenny
1071
0
  0
STYLE
  5
D3
100
AcDbSymbolTableRecord
100
AcDbTextStyleTableRecord
  2
textstyle102
 70
0
 40
0.0
 41
1.0
 50
0.0
 71
0
 42
5.0
  3

  4

1001
ACAD
1000
Nesovremenny
1071
0
  0
STYLE
  5
D4
100
AcDbSymbolTableRecord
100
AcDbTextStyleTableRecord
  2
textstyle103
 70
0
 40
0.0
 41
1.0
 50
0.0
 71
0
 42
5.0
  3

  4

1001
ACAD
1000
Nesovremenny
1071
0
  0
STYLE
  5
D5
100
AcDbSymbolTableRecord
100
AcDbTextStyleTableRecord
  2
textstyle104
 70
0
 40
0.0
 41
1.0
 50
0.0
 71
0
 42
6.0
  3

  4

1001
ACAD
1000
Nesovremenny
1071
0
  0
STYLE
  5
D6
100
AcDbSymbolTableRecord
100
AcDbTextStyleTableRecord
  2
textstyle105
 70
0
 40
0.0
 41
1.0
 50
0.0
 71
0
 42
6.0
  3

  4

1001
ACAD
1000
Nesovremenny
1071
0
  0
STYLE
  5
D7
100
AcDbSymbolTableRecord
100
AcDbTextStyleTableRecord
  2
textstyle106
 70
0
 40
0.0
 41
1.0
 50
0.0
 71
0
 42
4.0
  3

  4

1001
ACAD
1000
Nesovremenny
1071
0
  0
STYLE
  5
D8
100
AcDbSymbolTableRecord
100
AcDbTextStyleTableRecord
  2
textstyle107
 70
0
 40
0.0
 41
1.0
 50
0.0
 71
0
 42
6.0
  3

  4

1001
ACAD
1000
Nesovremenny
1071
0
  0
STYLE
  5
D9
100
AcDbSymbolTableRecord
100
AcDbTextStyleTableRecord
  2
textstyle108
 70
0
 40
0.0
 41
1.0
 50
0.0
 71
0
 42
6.0
  3

  4

1001
ACAD
1000
Nesovremenny
1071
0
  0
STYLE
  5
DA
100
AcDbSymbolTableRecord
100
AcDbTextStyleTableRecord
  2
textstyle109
 70
0
 40
0.0
 41
1.0
 50
0.0
 71
0
 42
6.0
  3

  4

1001
ACAD
1000
Nesovremenny
1071
0
  0
STYLE
  5
DB
100
AcDbSymbolTableRecord
100
AcDbTextStyleTableRecord
  2
textstyle110
 70
0
 40
0.0
 41
1.0
 50
0.0
 71
0
 42
6.0
  3

  4

1001
ACAD
1000
Nesovremenny
1071
0
  0
STYLE
  5
DC
100
AcDbSymbolTableRecord
100
AcDbTextStyleTableRecord
  2
textstyle111
 70
0
 40
0.0
 41
1.0
 50
0.0
 71
0
 42
6.0
  3

  4

1001
ACAD
1000
Nesovremenny
1071
0
  0
STYLE
  5
DD
100
AcDbSymbolTableRecord
100
AcDbTextStyleTableRecord
  2
textstyle112
 70
0
 40
0.0
 41
1.0
 50
0.0
 71
0
 42
2.5
  3

  4

1001
ACAD
1000
Nesovremenny
1071
0
  0
STYLE
  5
DE
100
AcDbSymbolTableRecord
100
AcDbTextStyleTableRecord
  2
textstyle113
 70
0
 40
0.0
 41
1.0
 50
0.0
 71
0
 42
2.5
  3

  4

1001
ACAD
1000
Nesovremenny
1071
0
  0
STYLE
  5
DF
100
AcDbSymbolTableRecord
100
AcDbTextStyleTableRecord
  2
textstyle114
 70
0
 40
0.0
 41
1.0
 50
0.0
 71
0
 42
4.0
  3

  4

1001
ACAD
1000
Nesovremenny
1071
0
  0
STYLE
  5
E0
100
AcDbSymbolTableRecord
100
AcDbTextStyleTableRecord
  2
textstyle115
 70
0
 40
0.0
 41
1.0
 50
0.0
 71
0
 42
2.5
  3

  4

1001
ACAD
1000
Nesovremenny
1071
0
  0
STYLE
  5
E1
100
AcDbSymbolTableRecord
100
AcDbTextStyleTableRecord
  2
textstyle116
 70
0
 40
0.0
 41
1.0
 50
0.0
 71
0
 42
2.5
  3

  4

1001
ACAD
1000
Nesovremenny
1071
0
  0
STYLE
  5
E2
100
AcDbSymbolTableRecord
100
AcDbTextStyleTableRecord
  2
textstyle117
 70
0
 40
0.0
 41
1.0
 50
0.0
 71
0
 42
2.5
  3

  4

1001
ACAD
1000
Nesovremenny
1071
0
  0
STYLE
  5
E3
100
AcDbSymbolTableRecord
100
AcDbTextStyleTableRecord
  2
textstyle118
 70
0
 40
0.0
 41
1.0
 50
0.0
 71
0
 42
2.5
  3

  4

1001
ACAD
1000
Nesovremenny
1071
0
  0
STYLE
  5
E4
100
AcDbSymbolTableRecord
100
AcDbTextStyleTableRecord
  2
textstyle119
 70
0
 40
0.0
 41
1.0
 50
0.0
 71
0
 42
2.5
  3

  4

1001
ACAD
1000
Nesovremenny
1071
0
  0
STYLE
  5
E5
100
AcDbSymbolTableRecord
100
AcDbTextStyleTableRecord
  2
textstyle120
 70
0
 40
0.0
 41
1.0
 50
0.0
 71
0
 42
2.5
  3

  4

1001
ACAD
1000
Nesovremenny
1071
0
  0
STYLE
  5
E6
100
AcDbSymbolTableRecord
100
AcDbTextStyleTableRecord
  2
textstyle121
 70
0
 40
0.0
 41
1.0
 50
0.0
 71
0
 42
2.5
  3

  4

1001
ACAD
1000
Nesovremenny
1071
0
  0
STYLE
  5
E7
100
AcDbSymbolTableRecord
100
AcDbTextStyleTableRecord
  2
textstyle122
 70
0
 40
0.0
 41
1.0
 50
0.0
 71
0
 42
2.5
  3

  4

1001
ACAD
1000
Nesovremenny
1071
0
  0
ENDTAB
  0
TABLE
  2
VIEW
  5
6
100
AcDbSymbolTable
 70
0
  0
ENDTAB
  0
TABLE
  2
UCS
  5
7
100
AcDbSymbolTable
 70
0
  0
ENDTAB
  0
TABLE
  2
APPID
  5
9
100
AcDbSymbolTable
 70
1
  0
APPID
  5
12
100
AcDbSymbolTableRecord
100
AcDbRegAppTableRecord
  2
ACAD
 70
0
  0
APPID
  5
E8
100
AcDbSymbolTableRecord
100
AcDbRegAppTableRecord
  2
QCAD
 70
0
  0
ENDTAB
  0
TABLE
  2
DIMSTYLE
  5
A
100
AcDbSymbolTable
 70
1
100
AcDbDimStyleTable
 71
0
  0
DIMSTYLE
105
27
100
AcDbSymbolTableRecord
100
AcDbDimStyleTableRecord
  2
Standard
 41
2.5
 42
0.625
 43
3.75
 44
1.25
 70
0
 73
0
 74
0
 77
1
 78
8
140
2.5
141
2.5
143
0.03937007874016
147
0.625
171
3
172
1
271
2
272
2
274
3
278
44
283
0
284
8
340
6C
  0
ENDTAB
  0
TABLE
  2
BLOCK_RECORD
  5
1
100
AcDbSymbolTable
 70
1
  0
BLOCK_RECORD
  5
1F
100
AcDbSymbolTableRecord
100
AcDbBlockTableRecord
  2
*Model_Space
340
22
  0
BLOCK_RECORD
  5
1B
100
AcDbSymbolTableRecord
100
AcDbBlockTableRecord
  2
*Paper_Space
340
1E
  0
BLOCK_RECORD
  5
23
100
AcDbSymbolTableRecord
100
AcDbBlockTableRecord
  2
*Paper_Space0
340
26
  0
BLOCK_RECORD
  5
E9
100
AcDbSymbolTableRecord
100
AcDbBlockTableRecord
  2
cap_col
340
0
  0
BLOCK_RECORD
  5
EA
100
AcDbSymbolTableRecord
100
AcDbBlockTableRecord
  2
SWITCH
340
0
  0
BLOCK_RECORD
  5
EB
100
AcDbSymbolTableRecord
100
AcDbBlockTableRecord
  2
COLUMN
340
0
  0
BLOCK_RECORD
  5
EC
100
AcDbSymbolTableRecord
100
AcDbBlockTableRecord
  2
caps_left
340
0
  0
BLOCK_RECORD
  5
ED
100
AcDbSymbolTableRecord
100
AcDbBlockTableRecord
  2
caps_right
340
0
  0
BLOCK_RECORD
  5
EE
100
AcDbSymbolTableRecord
100
AcDbBlockTableRecord
  2
dsa
340
0
  0
BLOCK_RECORD
  5
EF
100
AcDbSymbolTableRecord
100
AcDbBlockTableRecord
  2
1X2
340
0
  0
ENDTAB
  0
ENDSEC
  0
SECTION
  2
BLOCKS
  0
BLOCK
  5
20
100
AcDbEntity
  8
0
100
AcDbBlockBegin
  2
*Model_Space
 70
0
 10
0.0
 20
0.0
 30
0.0
  3
*Model_Space
  1

  0
ENDBLK
  5
21
100
AcDbEntity
  8
0
100
AcDbBlockEnd
  0
BLOCK
  5
1C
100
AcDbEntity
 67
1
  8
0
100
AcDbBlockBegin
  2
*Paper_Space
 70
0
 10
0.0
 20
0.0
 30
0.0
  3
*Paper_Space
  1

  0
ENDBLK
  5
1D
100
AcDbEntity
 67
1
  8
0
100
AcDbBlockEnd
  0
BLOCK
  5
24
100
AcDbEntity
  8
0
100
AcDbBlockBegin
  2
*Paper_Space0
 70
0
 10
0.0
 20
0.0
 30
0.0
  3
*Paper_Space0
  1

  0
ENDBLK
  5
25
100
AcDbEntity
  8
0
100
AcDbBlockEnd
  0
BLOCK
  5
F0
100
AcDbEntity
  8
0
100
AcDbBlockBegin
  2
cap_col
 70
0
 10
0.0
 20
0.0
 30
0.0
  3
cap_col
  1

  0
INSERT
  5
F1
100
AcDbEntity
  8
caps
 62
256
370
-1
 48
1.0
  6
ByLayer
100
AcDbBlockReference
  2
dsa
 10
0.0
 20
0.0
 30
0.0
  0
INSERT
  5
F2
100
AcDbEntity
  8
caps
 62
256
370
-1
 48
1.0
  6
ByLayer
100
AcDbBlockReference
  2
dsa
 10
0.0
 20
19.0
 30
0.0
  0
INSERT
  5
F3
100
AcDbEntity
  8
caps
 62
256
370
-1
 48
1.0
  6
ByLayer
100
AcDbBlockReference
  2
dsa
 10
0.0
 20
38.0
 30
0.0
  0
INSERT
  5
F4
100
AcDbEntity
  8
caps
 62
256
370
-1
 48
1.0
  6
ByLayer
100
AcDbBlockReference
  2
dsa
 10
0.0
 20
57.0
 30
0.0
  0
ENDBLK
  5
F5
100
AcDbEntity
  8
0
100
AcDbBlockEnd
  0
BLOCK
  5
F6
100
AcDbEntity
  8
0
100
AcDbBlockBegin
  2
SWITCH
 70
0
 10
0.0
 20
0.0
 30
0.0
  3
SWITCH
  1

  0
LWPOLYLINE
  5
F7
100
AcDbEntity
  8
0
 62
256
370
-1
 48
1.0
  6
ByLayer
100
AcDbPolyline
 90
20
 70
1
 10
0.0
 20
0.0
 10
14.0
 20
0.0
 10
14.0
 20
1.0
 10
14.8000000000000007
 20
1.0
 10
14.8000000000000007
 20
4.0999999999999943
 10
14.0
 20
4.0999999999999943
 10
14.0
 20
9.8999999999999915
 10
14.8000000000000007
 20
9.8999999999999915
 10
14.8000000000000007
 20
12.9999999999999893
 10
14.0
 20
12.9999999999999893
 10
14.0
 20
13.9999999999999893
 10
0.0
 20
13.9999999999999893
 10
0.0
 20
12.9999999999999893
 10
-0.7999999999999998
 20
12.9999999999999893
 10
-0.7999999999999998
 20
9.8999999999999915
 10
0.0
 20
9.8999999999999915
 10
0.0
 20
4.0999999999999943
 10
-0.7999999999999998
 20
4.0999999999999943
 10
-0.7999999999999998
 20
1.0
 10
0.0
 20
1.0
  0
ENDBLK
  5
F8
100
AcDbEntity
  8
0
100
AcDbBlockEnd
  0
BLOCK
  5
F9
100
AcDbEntity
  8
0
100
AcDbBlockBegin
  2
COLUMN
 70
0
 10
0.0
 20
0.0
 30
0.0
  3
COLUMN
  1

  0
INSERT
  5
FA
100
AcDbEntity
  8
0
 62
256
370
-1
 48
1.0
  6
ByLayer
100
AcDbBlockReference
  2
SWITCH
 10
0.0
 20
0.0
 30
0.0
  0
INSERT
  5
FB
100
AcDbEntity
  8
0
 62
256
370
-1
 48
1.0
  6
ByLayer
100
AcDbBlockReference
  2
SWITCH
 10
0.0
 20
19.0
 30
0.0
  0
INSERT
  5
FC
100
AcDbEntity
  8
0
 62
256
370
-1
 48
1.0
  6
ByLayer
100
AcDbBlockReference
  2
SWITCH
 10
0.0
 20
38.0
 30
0.0
  0
INSERT
  5
FD
100
AcDbEntity
  8
0
 62
256
370
-1
 48
1.0
  6
ByLayer
100
AcDbBlockReference
  2
SWITCH
 10
0.0
 20
57.0
 30
0.0
  0
ENDBLK
  5
FE
100
AcDbEntity
  8
0
100
AcDbBlockEnd
  0
BLOCK
  5
FF
100
AcDbEntity
  8
0
100
AcDbBlockBegin
  2
caps_left
 70
0
 10
0.0
 20
0.0
 30
0.0
  3
caps_left
  1

  0
INSERT
  5
100
100
AcDbEntity
  8
caps
 62
256
370
-1
 48
1.0
  6
ByLayer
100
AcDbBlockReference
  2
cap_col
 10
0.0
 20
0.0
 30
0.0
  0
INSERT
  5
101
100
AcDbEntity
  8
caps
 62
256
370
-1
 48
1.0
  6
ByLayer
100
AcDbBlockReference
  2
cap_col
 10
19.0
 20
0.0
 30
0.0
  0
INSERT
  5
102
100
AcDbEntity
  8
caps
 62
256
370
-1
 48
1.0
  6
ByLayer
100
AcDbBlockReference
  2
cap_col
 10
38.0
 20
0.0
 30
0.0
  0
INSERT
  5
103
100
AcDbEntity
  8
caps
 62
256
370
-1
 48
1.0
  6
ByLayer
100
AcDbBlockReference
  2
cap_col
 10
57.0
 20
0.0
 30
0.0
  0
INSERT
  5
104
100
AcDbEntity
  8
caps
 62
256
370
-1
 48
1.0
  6
ByLayer
100
AcDbBlockReference
  2
cap_col
 10
76.0
 20
0.0
 30
0.0
  0
INSERT
  5
105
100
AcDbEntity
  8
caps
 62
256
370
-1
 48
1.0
  6
ByLayer
100
AcDbBlockReference
  2
cap_col
 10
95.0
 20
0.0
 30
0.0
  0
ENDBLK
  5
106
100
AcDbEntity
  8
0
100
AcDbBlockEnd
  0
BLOCK
  5
107
100
AcDbEntity
  8
0
100
AcDbBlockBegin
  2
caps_right
 70
0
 10
0.0
 20
0.0
 30
0.0
  3
caps_right
  1

  0
INSERT
  5
108
100
AcDbEntity
  8
caps
 62
256
370
-1
 48
1.0
  6
ByLayer
100
AcDbBlockReference
  2
caps_left
 10
0.0
 20
0.0
 30
0.0
  0
ENDBLK
  5
109
100
AcDbEntity
  8
0
100
AcDbBlockEnd
  0
BLOCK
  5
10A
100
AcDbEntity
  8
0
100
AcDbBlockBegin
  2
dsa
 70
0
 10
0.0
 20
0.0
 30
0.0
  3
dsa
  1

  0
LWPOLYLINE
  5
10B
100
AcDbEntity
  8
caps
 62
256
370
-1
 48
1.0
  6
ByLayer
100
AcDbPolyline
 90
4
 70
1
 10
0.0
 20
0.0
 10
18.0
 20
0.0
 10
18.0
 20
18.0
 10
0.0
 20
18.0
  0
LWPOLYLINE
  5
10C
100
AcDbEntity
  8
caps
 62
256
370
-1
 48
1.0
  6
ByLayer
100
AcDbPolyline
 90
4
 70
1
 10
3.0
 20
3.0
 10
15.0
 20
3.0
 10
15.0
 20
15.0
 10
3.0
 20
15.0
  0
ENDBLK
  5
10D
100
AcDbEntity
  8
0
100
AcDbBlockEnd
  0
BLOCK
  5
10E
100
AcDbEntity
  8
0
100
AcDbBlockBegin
  2
1X2
 70
0
 10
0.0
 20
0.0
 30
0.0
  3
1X2
  1

  0
LINE
  5
10F
100
AcDbEntity
  8
0
 62
256
370
-1
 48
1.0
  6
ByLayer
100
AcDbLine
 10
20.3999999999999808
 20
-0.9699999999999989
 30
0.0
 11
20.3999999999999808
 21
0.230000000000004
 31
0.0
  0
LINE
  5
110
100
AcDbEntity
  8
0
 62
256
370
-1
 48
1.0
  6
ByLayer
100
AcDbLine
 10
17.3999999999999808
 20
0.230000000000004
 30
0.0
 11
17.3999999999999808
 21
-0.9699999999999989
 31
0.0
  0
LINE
  5
111
100
AcDbEntity
  8
0
 62
256
370
-1
 48
1.0
  6
ByLayer
100
AcDbLine
 10
23.0999999999999908
 20
7.0
 30
0.0
 11
23.0999999999999908
 21
6.5
 31
0.0
  0
LINE
  5
112
100
AcDbEntity
  8
0
 62
256
370
-1
 48
1.0
  6
ByLayer
100
AcDbLine
 10
23.0999999999999908
 20
6.5
 30
0.0
 11
22.2249999999999908
 21
6.5
 31
0.0
  0
LINE
  5
113
100
AcDbEntity
  8
0
 62
256
370
-1
 48
1.0
  6
ByLayer
100
AcDbLine
 10
22.2249999999999908
 20
9.2999999999999972
 30
0.0
 11
23.0999999999999908
 21
9.2999999999999972
 31
0.0
  0
LINE
  5
114
100
AcDbEntity
  8
0
 62
256
370
-1
 48
1.0
  6
ByLayer
100
AcDbLine
 10
23.0999999999999908
 20
9.2999999999999972
 30
0.0
 11
23.0999999999999908
 21
6.5
 31
0.0
  0
LINE
  5
115
100
AcDbEntity
  8
0
 62
256
370
-1
 48
1.0
  6
ByLayer
100
AcDbLine
 10
15.5749999999999904
 20
12.5299999999999994
 30
0.0
 11
15.5749999999999904
 21
11.7300000000000004
 31
0.0
  0
LINE
  5
116
100
AcDbEntity
  8
0
 62
256
370
-1
 48
1.0
  6
ByLayer
100
AcDbLine
 10
15.5749999999999904
 20
11.7300000000000004
 30
0.0
 11
14.7999999999999794
 21
11.7300000000000004
 31
0.0
  0
LINE
  5
117
100
AcDbEntity
  8
0
 62
256
370
-1
 48
1.0
  6
ByLayer
100
AcDbLine
 10
15.5749999999999904
 20
0.230000000000004
 30
0.0
 11
15.5749999999999904
 21
1.0300000000000009
 31
0.0
  0
LINE
  5
118
100
AcDbEntity
  8
0
 62
256
370
-1
 48
1.0
  6
ByLayer
100
AcDbLine
 10
14.0
 20
1.0300000000000009
 30
0.0
 11
14.0
 21
1.0
 31
0.0
  0
LINE
  5
119
100
AcDbEntity
  8
0
 62
256
370
-1
 48
1.0
  6
ByLayer
100
AcDbLine
 10
14.0
 20
0.0
 30
0.0
 11
14.0
 21
1.0
 31
0.0
  0
LINE
  5
11A
100
AcDbEntity
  8
0
 62
256
370
-1
 48
1.0
  6
ByLayer
100
AcDbLine
 10
14.8000000000000096
 20
12.9999999999999893
 30
0.0
 11
14.0
 21
12.9999999999999893
 31
0.0
  0
LINE
  5
11B
100
AcDbEntity
  8
0
 62
256
370
-1
 48
1.0
  6
ByLayer
100
AcDbLine
 10
14.0
 20
12.9999999999999893
 30
0.0
 11
14.0
 21
13.9999999999999893
 31
0.0
  0
LINE
  5
11C
100
AcDbEntity
  8
0
 62
256
370
-1
 48
1.0
  6
ByLayer
100
AcDbLine
 10
14.7999999999999794
 20
11.7300000000000004
 30
0.0
 11
14.8000000000000096
 21
12.9999999999999893
 31
0.0
  0
LINE
  5
11D
100
AcDbEntity
  8
0
 62
256
370
-1
 48
1.0
  6
ByLayer
100
AcDbLine
 10
22.2249999999999908
 20
9.2999999999999972
 30
0.0
 11
22.2249999999999908
 21
12.5299999999999994
 31
0.0
  0
LINE
  5
11E
100
AcDbEntity
  8
0
 62
256
370
-1
 48
1.0
  6
ByLayer
100
AcDbLine
 10
22.2249999999999908
 20
0.230000000000004
 30
0.0
 11
22.2249999999999908
 21
6.5
 31
0.0
  0
LINE
  5
11F
100
AcDbEntity
  8
0
 62
256
370
-1
 48
1.0
  6
ByLayer
100
AcDbLine
 10
20.3999999999999808
 20
0.230000000000004
 30
0.0
 11
22.2249999999999908
 21
0.230000000000004
 31
0.0
  0
LINE
  5
120
100
AcDbEntity
  8
0
 62
256
370
-1
 48
1.0
  6
ByLayer
100
AcDbLine
 10
17.3999999999999808
 20
0.230000000000004
 30
0.0
 11
15.5749999999999904
 21
0.230000000000004
 31
0.0
  0
LINE
  5
121
100
AcDbEntity
  8
0
 62
256
370
-1
 48
1.0
  6
ByLayer
100
AcDbLine
 10
-6.3999999999999773
 20
-0.9699999999999989
 30
0.0
 11
-6.3999999999999773
 21
0.230000000000004
 31
0.0
  0
LINE
  5
122
100
AcDbEntity
  8
0
 62
256
370
-1
 48
1.0
  6
ByLayer
100
AcDbLine
 10
-3.3999999999999768
 20
0.230000000000004
 30
0.0
 11
-3.3999999999999768
 21
-0.9699999999999989
 31
0.0
  0
LINE
  5
123
100
AcDbEntity
  8
0
 62
256
370
-1
 48
1.0
  6
ByLayer
100
AcDbLine
 10
-9.0999999999999943
 20
6.5
 30
0.0
 11
-8.2249999999999943
 21
6.5
 31
0.0
  0
LINE
  5
124
100
AcDbEntity
  8
0
 62
256
370
-1
 48
1.0
  6
ByLayer
100
AcDbLine
 10
-8.2249999999999943
 20
9.2999999999999972
 30
0.0
 11
-9.0999999999999943
 21
9.2999999999999972
 31
0.0
  0
LINE
  5
125
100
AcDbEntity
  8
0
 62
256
370
-1
 48
1.0
  6
ByLayer
100
AcDbLine
 10
-1.5749999999999891
 20
12.5299999999999994
 30
0.0
 11
-1.5749999999999891
 21
11.7300000000000004
 31
0.0
  0
LINE
  5
126
100
AcDbEntity
  8
0
 62
256
370
-1
 48
1.0
  6
ByLayer
100
AcDbLine
 10
-1.5749999999999891
 20
11.7300000000000004
 30
0.0
 11
-0.7999999999999829
 21
11.7300000000000004
 31
0.0
  0
LINE
  5
127
100
AcDbEntity
  8
0
 62
256
370
-1
 48
1.0
  6
ByLayer
100
AcDbLine
 10
-1.5749999999999891
 20
0.230000000000004
 30
0.0
 11
-1.5749999999999891
 21
1.0300000000000009
 31
0.0
  0
LINE
  5
128
100
AcDbEntity
  8
0
 62
256
370
-1
 48
1.0
  6
ByLayer
100
AcDbLine
 10
0.0
 20
1.0300000000000009
 30
0.0
 11
0.0
 21
1.0
 31
0.0
  0
LINE
  5
129
100
AcDbEntity
  8
0
 62
256
370
-1
 48
1.0
  6
ByLayer
100
AcDbLine
 10
0.0
 20
0.0
 30
0.0
 11
0.0
 21
1.0
 31
0.0
  0
LINE
  5
12A
100
AcDbEntity
  8
0
 62
256
370
-1
 48
1.0
  6
ByLayer
100
AcDbLine
 10
-0.8000000000000114
 20
12.9999999999999893
 30
0.0
 11
0.0
 21
12.9999999999999893
 31
0.0
  0
LINE
  5
12B
100
AcDbEntity
  8
0
 62
256
370
-1
 48
1.0
  6
ByLayer
100
AcDbLine
 10
0.0
 20
12.9999999999999893
 30
0.0
 11
0.0
 21
13.9999999999999893
 31
0.0
  0
LINE
  5
12C
100
AcDbEntity
  8
0
 62
256
370
-1
 48
1.0
  6
ByLayer
100
AcDbLine
 10
-0.7999999999999829
 20
11.7300000000000004
 30
0.0
 11
-0.8000000000000114
 21
12.9999999999999893
 31
0.0
  0
LINE
  5
12D
100
AcDbEntity
  8
0
 62
256
370
-1
 48
1.0
  6
ByLayer
100
AcDbLine
 10
-8.2249999999999943
 20
9.2999999999999972
 30
0.0
 11
-8.2249999999999943
 21
12.5299999999999994
 31
0.0
  0
LINE
  5
12E
100
AcDbEntity
  8
0
 62
256
370
-1
 48
1.0
  6
ByLayer
100
AcDbLine
 10
-8.2249999999999943
 20
0.230000000000004
 30
0.0
 11
-8.2249999999999943
 21
6.5
 31
0.0
  0
LINE
  5
12F
100
AcDbEntity
  8
0
 62
256
370
-1
 48
1.0
  6
ByLayer
100
AcDbLine
 10
-6.3999999999999773
 20
0.230000000000004
 30
0.0
 11
-8.2249999999999943
 21
0.230000000000004
 31
0.0
  0
LINE
  5
130
100
AcDbEntity
  8
0
 62
256
370
-1
 48
1.0
  6
ByLayer
100
AcDbLine
 10
-3.3999999999999768
 20
0.230000000000004
 30
0.0
 11
-1.5749999999999891
 21
0.230000000000004
 31
0.0
  0
LINE
  5
131
100
AcDbEntity
  8
0
 62
256
370
-1
 48
1.0
  6
ByLayer
100
AcDbLine
 10
-8.2249999999999943
 20
12.5299999999999994
 30
0.0
 11
-1.5749999999999891
 21
12.5299999999999994
 31
0.0
  0
LINE
  5
132
100
AcDbEntity
  8
0
 62
256
370
-1
 48
1.0
  6
ByLayer
100
AcDbLine
 10
-9.0999999999999943
 20
9.2999999999999972
 30
0.0
 11
-9.0999999999999943
 21
6.5
 31
0.0
  0
LINE
  5
133
100
AcDbEntity
  8
0
 62
256
370
-1
 48
1.0
  6
ByLayer
100
AcDbLine
 10
-6.3999999999999773
 20
-0.9699999999999989
 30
0.0
 11
-3.3999999999999768
 21
-0.9699999999999989
 31
0.0
  0
LINE
  5
134
100
AcDbEntity
  8
0
 62
256
370
-1
 48
1.0
  6
ByLayer
100
AcDbLine
 10
0.0
 20
0.0
 30
0.0
 11
14.0
 21
0.0
 31
0.0
  0
LINE
  5
135
100
AcDbEntity
  8
0
 62
256
370
-1
 48
1.0
  6
ByLayer
100
AcDbLine
 10
14.0
 20
1.0300000000000009
 30
0.0
 11
15.5749999999999904
 21
1.0300000000000009
 31
0.0
  0
LINE
  5
136
100
AcDbEntity
  8
0
 62
256
370
-1
 48
1.0
  6
ByLayer
100
AcDbLine
 10
17.3999999999999808
 20
-0.9699999999999989
 30
0.0
 11
20.3999999999999808
 21
-0.9699999999999989
 31
0.0
  0
LINE
  5
137
100
AcDbEntity
  8
0
 62
256
370
-1
 48
1.0
  6
ByLayer
100
AcDbLine
 10
22.2249999999999908
 20
12.5299999999999994
 30
0.0
 11
15.5749999999999904
 21
12.5299999999999994
 31
0.0
  0
LINE
  5
138
100
AcDbEntity
  8
0
 62
256
370
-1
 48
1.0
  6
ByLayer
100
AcDbLine
 10
0.0
 20
13.9999999999999893
 30
0.0
 11
14.0
 21
13.9999999999999893
 31
0.0
  0
LINE
  5
139
100
AcDbEntity
  8
0
 62
256
370
-1
 48
1.0
  6
ByLayer
100
AcDbLine
 10
0.0
 20
1.0300000000000009
 30
0.0
 11
-1.5749999999999891
 21
1.0300000000000009
 31
0.0
  0
ENDBLK
  5
13A
100
AcDbEntity
  8
0
100
AcDbBlockEnd
  0
ENDSEC
  0
SECTION
  2
ENTITIES
  0
ARC
  5
13B
100
AcDbEntity
  8
0
 62
256
370
-1
 48
1.0
  6
ByLayer
100
AcDbCircle
 10
1.5
 20
1.5
 30
0.0
 40
1.5
100
AcDbArc
 50
180.0
 51
270.0
  0
LINE
  5
13C
100
AcDbEntity
  8
0
 62
256
370
-1
 48
1.0
  6
ByLayer
100
AcDbLine
 10
0.0
 20
79.5
 30
0.0
 11
0.0
 21
1.5
 31
0.0
  0
ARC
  5
13D
100
AcDbEntity
  8
0
 62
256
370
-1
 48
1.0
  6
ByLayer
100
AcDbCircle
 10
1.5
 20
79.5
 30
0.0
 40
1.5
100
AcDbArc
 50
90.0
 51
180.0
  0
LINE
  5
13E
100
AcDbEntity
  8
0
 62
256
370
-1
 48
1.0
  6
ByLayer
100
AcDbLine
 10
269.5
 20
81.0
 30
0.0
 11
1.5
 21
81.0
 31
0.0
  0
ARC
  5
13F
100
AcDbEntity
  8
0
 62
256
370
-1
 48
1.0
  6
ByLayer
100
AcDbCircle
 10
269.5
 20
79.5
 30
0.0
 40
1.5
100
AcDbArc
 50
0.0
 51
90.0
  0
LINE
  5
140
100
AcDbEntity
  8
0
 62
256
370
-1
 48
1.0
  6
ByLayer
100
AcDbLine
 10
271.0
 20
1.5
 30
0.0
 11
271.0
 21
79.5
 31
0.0
  0
LINE
  5
141
100
AcDbEntity
  8
0
 62
256
370
-1
 48
1.0
  6
ByLayer
100
AcDbLine
 10
1.5
 20
0.0
 30
0.0
 11
269.5
 21
0.0
 31
0.0
  0
ARC
  5
142
100
AcDbEntity
  8
0
 62
256
370
-1
 48
1.0
  6
ByLayer
100
AcDbCircle
 10
269.5
 20
1.5
 30
0.0
 40
1.5
100
AcDbArc
 50
270.0
 51
0.0
  0
INSERT
  5
143
100
AcDbEntity
  8
cuts
 62
256
370
-1
 48
1.0
  6
ByLayer
100
AcDbBlockReference
  2
COLUMN
 10
5.0
 20
5.0
 30
0.0
  0
INSERT
  5
144
100
AcDbEntity
  8
cuts
 62
256
370
-1
 48
1.0
  6
ByLayer
100
AcDbBlockReference
  2
COLUMN
 10
24.0
 20
5.0
 30
0.0
  0
INSERT
  5
145
100
AcDbEntity
  8
cuts
 62
256
370
-1
 48
1.0
  6
ByLayer
100
AcDbBlockReference
  2
COLUMN
 10
43.0
 20
5.0
 30
0.0
  0
INSERT
  5
146
100
AcDbEntity
  8
cuts
 62
256
370
-1
 48
1.0
  6
ByLayer
100
AcDbBlockReference
  2
COLUMN
 10
62.0
 20
5.0
 30
0.0
  0
INSERT
  5
147
100
AcDbEntity
  8
cuts
 62
256
370
-1
 48
1.0
  6
ByLayer
100
AcDbBlockReference
  2
COLUMN
 10
81.0
 20
5.0
 30
0.0
  0
INSERT
  5
148
100
AcDbEntity
  8
cuts
 62
256
370
-1
 48
1.0
  6
ByLayer
100
AcDbBlockReference
  2
COLUMN
 10
100.0
 20
5.0
 30
0.0
  0
INSERT
  5
149
100
AcDbEntity
  8
cuts
 62
256
370
-1
 48
1.0
  6
ByLayer
100
AcDbBlockReference
  2
COLUMN
 10
157.0
 20
5.0
 30
0.0
  0
INSERT
  5
14A
100
AcDbEntity
  8
cuts
 62
256
370
-1
 48
1.0
  6
ByLayer
100
AcDbBlockReference
  2
COLUMN
 10
176.0
 20
5.0
 30
0.0
  0
INSERT
  5
14B
100
AcDbEntity
  8
cuts
 62
256
370
-1
 48
1.0
  6
ByLayer
100
AcDbBlockReference
  2
COLUMN
 10
195.0
 20
5.0
 30
0.0
  0
INSERT
  5
14C
100
AcDbEntity
  8
cuts
 62
256
370
-1
 48
1.0
  6
ByLayer
100
AcDbBlockReference
  2
COLUMN
 10
214.0
 20
5.0
 30
0.0
  0
INSERT
  5
14D
100
AcDbEntity
  8
cuts
 62
256
370
-1
 48
1.0
  6
ByLayer
100
AcDbBlockReference
  2
COLUMN
 10
233.0
 20
5.0
 30
0.0
  0
INSERT
  5
14E
100
AcDbEntity
  8
cuts
 62
256
370
-1
 48
1.0
  6
ByLayer
100
AcDbBlockReference
  2
COLUMN
 10
252.0
 20
5.0
 30
0.0
  0
INSERT
  5
14F
100
AcDbEntity
  8
cuts
 62
256
370
-1
 48
1.0
  6
ByLayer
100
AcDbBlockReference
  2
SWITCH
 10
119.0
 20
62.0
 30
0.0
  0
INSERT
  5
150
100
AcDbEntity
  8
cuts
 62
256
370
-1
 48
1.0
  6
ByLayer
100
AcDbBlockReference
  2
SWITCH
 10
138.0
 20
62.0
 30
0.0
  0
INSERT
  5
151
100
AcDbEntity
  8
cuts
 62
256
370
-1
 48
1.0
  6
ByLayer
100
AcDbBlockReference
  2
1X2
 10
128.5
 20
6.0
 30
0.0
  0
INSERT
  5
152
100
AcDbEntity
  8
cuts
 62
256
370
-1
 48
1.0
  6
ByLayer
100
AcDbBlockReference
  2
1X2
 10
119.0
 20
47.5
 30
0.0
 50
270.0
  0
INSERT
  5
153
100
AcDbEntity
  8
cuts
 62
256
370
-1
 48
1.0
  6
ByLayer
100
AcDbBlockReference
  2
1X2
 10
152.0
 20
33.5
 30
0.0
 50
90.0
  0
CIRCLE
  5
154
100
AcDbEntity
  8
cuts
 62
256
370
-1
 48
1.0
  6
ByLayer
100
AcDbCircle
 10
21.5
 20
21.5
 30
0.0
 40
1.25
  0
CIRCLE
  5
155
100
AcDbEntity
  8
cuts
 62
256
370
-1
 48
1.0
  6
ByLayer
100
AcDbCircle
 10
21.5
 20
59.5
 30
0.0
 40
1.25
  0
CIRCLE
  5
156
100
AcDbEntity
  8
cuts
 62
256
370
-1
 48
1.0
  6
ByLayer
100
AcDbCircle
 10
135.5
 20
40.5
 30
0.0
 40
1.25
  0
CIRCLE
  5
157
100
AcDbEntity
  8
cuts
 62
256
370
-1
 48
1.0
  6
ByLayer
100
AcDbCircle
 10
249.5
 20
59.5
 30
0.0
 40
1.25
  0
CIRCLE
  5
158
100
AcDbEntity
  8
cuts
 62
256
370
-1
 48
1.0
  6
ByLayer
100
AcDbCircle
 10
249.5
 20
21.5
 30
0.0
 40
1.25
  0
INSERT
  5
159
100
AcDbEntity
  8
caps
 62
256
370
-1
 48
1.0
  6
ByLayer
100
AcDbBlockReference
  2
caps_left
 10
3.0
 20
3.0
 30
0.0
  0
INSERT
  5
15A
100
AcDbEntity
  8
caps
 62
256
370
-1
 48
1.0
  6
ByLayer
100
AcDbBlockReference
  2
caps_right
 10
155.0
 20
3.0
 30
0.0
  0
INSERT
  5
15B
100
AcDbEntity
  8
caps
 62
256
370
-1
 48
1.0
  6
ByLayer
100
AcDbBlockReference
  2
dsa
 10
117.0
 20
60.0
 30
0.0
  0
INSERT
  5
15C
100
AcDbEntity
  8
caps
 62
256
370
-1
 48
1.0
  6
ByLayer
100
AcDbBlockReference
  2
dsa
 10
136.0
 20
60.0
 30
0.0
  0
LWPOLYLINE
  5
15D
100
AcDbEntity
  8
caps
 62
256
370
-1
 48
1.0
  6
ByLayer
100
AcDbPolyline
 90
4
 70
1
 10
117.0
 20
3.0
 10
154.0
 20
3.0
 10
154.0
 20
21.0
 10
117.0
 20
21.0
  0
LWPOLYLINE
  5
15E
100
AcDbEntity
  8
caps
 62
256
370
-1
 48
1.0
  6
ByLayer
100
AcDbPolyline
 90
4
 70
1
 10
117.0
 20
22.0
 10
135.0
 20
22.0
 10
135.0
 20
59.0
 10
117.0
 20
59.0
  0
LWPOLYLINE
  5
15F
100
AcDbEntity
  8
caps
 62
256
370
-1
 48
1.0
  6
ByLayer
100
AcDbPolyline
 90
4
 70
1
 10
136.0
 20
59.0
 10
154.0
 20
59.0
 10
154.0
 20
22.0
 10
136.0
 20
22.0
  0
LWPOLYLINE
  5
160
100
AcDbEntity
  8
caps
 62
256
370
-1
 48
1.0
  6
ByLayer
100
AcDbPolyline
 90
4
 70
1
 10
151.0
 20
25.0
 10
139.0
 20
25.0
 10
139.0
 20
56.0
 10
151.0
 20
56.0
  0
LWPOLYLINE
  5
161
100
AcDbEntity
  8
caps
 62
256
370
-1
 48
1.0
  6
ByLayer
100
AcDbPolyline
 90
4
 70
1
 10
132.0
 20
25.0
 10
120.0
 20
25.0
 10
120.0
 20
56.0
 10
132.0
 20
56.0
  0
LWPOLYLINE
  5
162
100
AcDbEntity
  8
caps
 62
256
370
-1
 48
1.0
  6
ByLayer
100
AcDbPolyline
 90
4
 70
1
 10
120.0
 20
6.0
 10
151.0
 20
6.0
 10
151.0
 20
18.0
 10
120.0
 20
18.0
  0
TEXT
  5
163
100
AcDbEntity
  8
labels_white
 62
256
370
-1
 48
1.0
  6
ByLayer
100
AcDbText
 10
66.0
 20
66.0
 30
0.0
 40
6.0
  1
E
 50
0.0
 41
1.0
  7
textstyle13
 71
0
 72
1
 11
69.0
 21
69.0
 31
0.0
100
AcDbText
 73
2
  0
TEXT
  5
164
100
AcDbEntity
  8
labels_white
 62
256
370
-1
 48
1.0
  6
ByLayer
100
AcDbText
 10
27.8571428571428612
 20
66.0
 30
0.0
 40
6.0
  1
Q
 50
0.0
 41
1.0
  7
textstyle12
 71
0
 72
1
 11
31.0
 21
69.0
 31
0.0
100
AcDbText
 73
2
  0
TEXT
  5
165
100
AcDbEntity
  8
labels_white
 62
256
370
-1
 48
1.0
  6
ByLayer
100
AcDbText
 10
46.5714285714285694
 20
66.0
 30
0.0
 40
6.0
  1
W
 50
0.0
 41
1.0
  7
textstyle15
 71
0
 72
1
 11
50.0
 21
69.0
 31
0.0
100
AcDbText
 73
2
  0
TEXT
  5
166
100
AcDbEntity
  8
labels_white
 62
256
370
-1
 48
1.0
  6
ByLayer
100
AcDbText
 10
84.8571428571428612
 20
66.0
 30
0.0
 40
6.0
  1
R
 50
0.0
 41
1.0
  7
textstyle14
 71
0
 72
1
 11
88.0
 21
69.0
 31
0.0
100
AcDbText
 73
2
  0
TEXT
  5
167
100
AcDbEntity
  8
labels_white
 62
256
370
-1
 48
1.0
  6
ByLayer
100
AcDbText
 10
104.714285714285694
 20
66.0
 30
0.0
 40
6.0
  1
T
 50
0.0
 41
1.0
  7
textstyle9
 71
0
 72
1
 11
107.0
 21
69.0
 31
0.0
100
AcDbText
 73
2
  0
TEXT
  5
168
100
AcDbEntity
  8
labels_white
 62
256
370
-1
 48
1.0
  6
ByLayer
100
AcDbText
 10
161.428571428571388
 20
66.0
 30
0.0
 40
6.0
  1
Y
 50
0.0
 41
1.0
  7
textstyle8
 71
0
 72
1
 11
164.0
 21
69.0
 31
0.0
100
AcDbText
 73
2
  0
TEXT
  5
169
100
AcDbEntity
  8
labels_white
 62
256
370
-1
 48
1.0
  6
ByLayer
100
AcDbText
 10
179.8571428571428896
 20
66.0
 30
0.0
 40
6.0
  1
U
 50
0.0
 41
1.0
  7
textstyle11
 71
0
 72
1
 11
183.0
 21
69.0
 31
0.0
100
AcDbText
 73
2
  0
TEXT
  5
16A
100
AcDbEntity
  8
labels_white
 62
256
370
-1
 48
1.0
  6
ByLayer
100
AcDbText
 10
200.8571428571428896
 20
66.0
 30
0.0
 40
6.0
  1
I
 50
0.0
 41
1.0
  7
textstyle10
 71
0
 72
1
 11
202.0
 21
69.0
 31
0.0
100
AcDbText
 73
2
  0
TEXT
  5
16B
100
AcDbEntity
  8
labels_white
 62
256
370
-1
 48
1.0
  6
ByLayer
100
AcDbText
 10
217.8571428571428896
 20
66.0
 30
0.0
 40
6.0
  1
O
 50
0.0
 41
1.0
  7
textstyle5
 71
0
 72
1
 11
221.0
 21
69.0
 31
0.0
100
AcDbText
 73
2
  0
TEXT
  5
16C
100
AcDbEntity
  8
labels_white
 62
256
370
-1
 48
1.0
  6
ByLayer
100
AcDbText
 10
236.8571428571428896
 20
66.0
 30
0.0
 40
6.0
  1
P
 50
0.0
 41
1.0
  7
textstyle4
 71
0
 72
1
 11
240.0
 21
69.0
 31
0.0
100
AcDbText
 73
2
  0
TEXT
  5
16D
100
AcDbEntity
  8
labels_white
 62
256
370
-1
 48
1.0
  6
ByLayer
100
AcDbText
 10
28.4285714285714306
 20
47.0
 30
0.0
 40
6.0
  1
A
 50
0.0
 41
1.0
  7
textstyle7
 71
0
 72
1
 11
31.0
 21
50.0
 31
0.0
100
AcDbText
 73
2
  0
TEXT
  5
16E
100
AcDbEntity
  8
labels_white
 62
256
370
-1
 48
1.0
  6
ByLayer
100
AcDbText
 10
47.142857142857153
 20
47.0
 30
0.0
 40
6.0
  1
S
 50
0.0
 41
1.0
  7
textstyle6
 71
0
 72
1
 11
50.0
 21
50.0
 31
0.0
100
AcDbText
 73
2
  0
TEXT
  5
16F
100
AcDbEntity
  8
labels_white
 62
256
370
-1
 48
1.0
  6
ByLayer
100
AcDbText
 10
65.8571428571428612
 20
47.0
 30
0.0
 40
6.0
  1
D
 50
0.0
 41
1.0
  7
textstyle1
 71
0
 72
1
 11
69.0
 21
50.0
 31
0.0
100
AcDbText
 73
2
  0
TEXT
  5
170
100
AcDbEntity
  8
labels_white
 62
256
370
-1
 48
1.0
  6
ByLayer
100
AcDbText
 10
85.0
 20
47.0
 30
0.0
 40
6.0
  1
F
 50
0.0
 41
1.0
  7
textstyle0
 71
0
 72
1
 11
88.0
 21
50.0
 31
0.0
100
AcDbText
 73
2
  0
TEXT
  5
171
100
AcDbEntity
  8
labels_white
 62
256
370
-1
 48
1.0
  6
ByLayer
100
AcDbText
 10
104.0
 20
47.0
 30
0.0
 40
6.0
  1
G
 50
0.0
 41
1.0
  7
textstyle3
 71
0
 72
1
 11
107.0
 21
50.0
 31
0.0
100
AcDbText
 73
2
  0
TEXT
  5
172
100
AcDbEntity
  8
labels_white
 62
256
370
-1
 48
1.0
  6
ByLayer
100
AcDbText
 10
28.1428571428571388
 20
28.0
 30
0.0
 40
6.0
  1
Z
 50
0.0
 41
1.0
  7
textstyle2
 71
0
 72
1
 11
31.0
 21
31.0
 31
0.0
100
AcDbText
 73
2
  0
TEXT
  5
173
100
AcDbEntity
  8
labels_white
 62
256
370
-1
 48
1.0
  6
ByLayer
100
AcDbText
 10
47.142857142857153
 20
28.0
 30
0.0
 40
6.0
  1
X
 50
0.0
 41
1.0
  7
textstyle45
 71
0
 72
1
 11
50.0
 21
31.0
 31
0.0
100
AcDbText
 73
2
  0
TEXT
  5
174
100
AcDbEntity
  8
labels_white
 62
256
370
-1
 48
1.0
  6
ByLayer
100
AcDbText
 10
66.0
 20
28.0
 30
0.0
 40
6.0
  1
C
 50
0.0
 41
1.0
  7
textstyle44
 71
0
 72
1
 11
69.0
 21
31.0
 31
0.0
100
AcDbText
 73
2
  0
TEXT
  5
175
100
AcDbEntity
  8
labels_white
 62
256
370
-1
 48
1.0
  6
ByLayer
100
AcDbText
 10
85.4285714285714306
 20
28.0
 30
0.0
 40
6.0
  1
V
 50
0.0
 41
1.0
  7
textstyle47
 71
0
 72
1
 11
88.0
 21
31.0
 31
0.0
100
AcDbText
 73
2
  0
TEXT
  5
176
100
AcDbEntity
  8
labels_white
 62
256
370
-1
 48
1.0
  6
ByLayer
100
AcDbText
 10
103.8571428571429038
 20
28.0
 30
0.0
 40
6.0
  1
B
 50
0.0
 41
1.0
  7
textstyle46
 71
0
 72
1
 11
107.0
 21
31.0
 31
0.0
100
AcDbText
 73
2
  0
TEXT
  5
177
100
AcDbEntity
  8
labels_white
 62
256
370
-1
 48
1.0
  6
ByLayer
100
AcDbText
 10
160.8571428571428896
 20
47.0
 30
0.0
 40
6.0
  1
H
 50
0.0
 41
1.0
  7
textstyle41
 71
0
 72
1
 11
164.0
 21
50.0
 31
0.0
100
AcDbText
 73
2
  0
TEXT
  5
178
100
AcDbEntity
  8
labels_white
 62
256
370
-1
 48
1.0
  6
ByLayer
100
AcDbText
 10
181.0
 20
47.0
 30
0.0
 40
6.0
  1
J
 50
0.0
 41
1.0
  7
textstyle40
 71
0
 72
1
 11
183.0
 21
50.0
 31
0.0
100
AcDbText
 73
2
  0
TEXT
  5
179
100
AcDbEntity
  8
labels_white
 62
256
370
-1
 48
1.0
  6
ByLayer
100
AcDbText
 10
198.8571428571428896
 20
47.0
 30
0.0
 40
6.0
  1
K
 50
0.0
 41
1.0
  7
textstyle43
 71
0
 72
1
 11
202.0
 21
50.0
 31
0.0
100
AcDbText
 73
2
  0
TEXT
  5
17A
100
AcDbEntity
  8
labels_white
 62
256
370
-1
 48
1.0
  6
ByLayer
100
AcDbText
 10
218.1428571428571104
 20
47.0
 30
0.0
 40
6.0
  1
L
 50
0.0
 41
1.0
  7
textstyle42
 71
0
 72
1
 11
221.0
 21
50.0
 31
0.0
100
AcDbText
 73
2
  0
TEXT
  5
17B
100
AcDbEntity
  8
labels_white
 62
256
370
-1
 48
1.0
  6
ByLayer
100
AcDbText
 10
160.8571428571428896
 20
28.0
 30
0.0
 40
6.0
  1
N
 50
0.0
 41
1.0
  7
textstyle37
 71
0
 72
1
 11
164.0
 21
31.0
 31
0.0
100
AcDbText
 73
2
  0
TEXT
  5
17C
100
AcDbEntity
  8
labels_white
 62
256
370
-1
 48
1.0
  6
ByLayer
100
AcDbText
 10
179.571428571428612
 20
28.0
 30
0.0
 40
6.0
  1
M
 50
0.0
 41
1.0
  7
textstyle36
 71
0
 72
1
 11
183.0
 21
31.0
 31
0.0
100
AcDbText
 73
2
  0
TEXT
  5
17D
100
AcDbEntity
  8
labels_white
 62
256
370
-1
 48
1.0
  6
ByLayer
100
AcDbText
 10
239.404761904761898
 20
50.5
 30
0.0
 40
2.5
  1
;
 50
0.0
 41
1.0
  7
textstyle39
 71
0
 72
1
 11
240.0
 21
53.0
 31
0.0
100
AcDbText
 73
3
  0
TEXT
  5
17E
100
AcDbEntity
  8
labels_white
 62
256
370
-1
 48
1.0
  6
ByLayer
100
AcDbText
 10
239.404761904761898
 20
46.7142857142857224
 30
0.0
 40
2.5
  1
:
 50
0.0
 41
1.0
  7
textstyle38
 71
0
 72
1
 11
240.0
 21
46.0
 31
0.0
100
AcDbText
 73
1
  0
TEXT
  5
17F
100
AcDbEntity
  8
labels_white
 62
256
370
-1
 48
1.0
  6
ByLayer
100
AcDbText
 10
198.571428571428612
 20
29.7142857142857189
 30
0.0
 40
2.5
  1
<
 50
0.0
 41
1.0
  7
textstyle33
 71
0
 72
1
 11
202.0
 21
34.0
 31
0.0
100
AcDbText
 73
3
  0
TEXT
  5
180
100
AcDbEntity
  8
labels_white
 62
256
370
-1
 48
1.0
  6
ByLayer
100
AcDbText
 10
200.571428571428612
 20
30.0
 30
0.0
 40
2.5
  1
,
 50
0.0
 41
1.0
  7
textstyle32
 71
0
 72
1
 11
202.0
 21
27.0
 31
0.0
100
AcDbText
 73
1
  0
TEXT
  5
181
100
AcDbEntity
  8
labels_white
 62
256
370
-1
 48
1.0
  6
ByLayer
100
AcDbText
 10
219.571428571428612
 20
21.0
 30
0.0
 40
2.5
  1
.
 50
0.0
 41
1.0
  7
textstyle35
 71
0
 72
1
 11
221.0
 21
27.0
 31
0.0
100
AcDbText
 73
1
  0
TEXT
  5
182
100
AcDbEntity
  8
labels_white
 62
256
370
-1
 48
1.0
  6
ByLayer
100
AcDbText
 10
217.571428571428612
 20
29.7142857142857189
 30
0.0
 40
2.5
  1
>
 50
0.0
 41
1.0
  7
textstyle34
 71
0
 72
1
 11
221.0
 21
34.0
 31
0.0
100
AcDbText
 73
3
  0
TEXT
  5
183
100
AcDbEntity
  8
labels_black
 62
256
370
70
 48
1.0
  6
ByLayer
100
AcDbText
 10
10.5714285714285694
 20
69.5
 30
0.0
 40
2.5
  1
~
 50
0.0
 41
1.0
  7
textstyle29
 71
0
 72
1
 11
12.0
 21
72.0
 31
0.0
100
AcDbText
 73
3
  0
TEXT
  5
184
100
AcDbEntity
  8
labels_black
 62
256
370
70
 48
1.0
  6
ByLayer
100
AcDbText
 10
11.4047619047619104
 20
67.7142857142857082
 30
0.0
 40
2.5
  1
`
 50
0.0
 41
1.0
  7
textstyle28
 71
0
 72
1
 11
12.0
 21
65.0
 31
0.0
100
AcDbText
 73
1
  0
TEXT
  5
185
100
AcDbEntity
  8
labels_black
 62
256
370
-1
 48
1.0
  6
ByLayer
100
AcDbText
 10
8.8452380952380949
 20
48.75
 30
0.0
 40
2.5
  1
TAB
 50
0.0
 41
1.0
  7
textstyle31
 71
0
 72
1
 11
12.0
 21
50.0
 31
0.0
100
AcDbText
 73
2
  0
TEXT
  5
186
100
AcDbEntity
  8
labels_black
 62
256
370
-1
 48
1.0
  6
ByLayer
100
AcDbText
 10
6.8809523809523814
 20
29.75
 30
0.0
 40
2.5
  1
PGUP
 50
0.0
 41
1.0
  7
textstyle30
 71
0
 72
1
 11
12.0
 21
31.0
 31
0.0
100
AcDbText
 73
2
  0
TEXT
  5
187
100
AcDbEntity
  8
labels_black
 62
256
370
-1
 48
1.0
  6
ByLayer
100
AcDbText
 10
6.9404761904761907
 20
10.75
 30
0.0
 40
2.5
  1
PGDN
 50
0.0
 41
1.0
  7
textstyle25
 71
0
 72
1
 11
12.0
 21
12.0
 31
0.0
100
AcDbText
 73
2
  0
TEXT
  5
188
100
AcDbEntity
  8
labels_black
 62
256
370
70
 48
1.0
  6
ByLayer
100
AcDbText
 10
258.2261904761904816
 20
46.7142857142857224
 30
0.0
 40
2.5
  1
]
 50
0.0
 41
1.0
  7
textstyle24
 71
0
 72
1
 11
259.0
 21
46.0
 31
0.0
100
AcDbText
 73
1
  0
TEXT
  5
189
100
AcDbEntity
  8
labels_black
 62
256
370
70
 48
1.0
  6
ByLayer
100
AcDbText
 10
258.1071428571427759
 20
65.7142857142857082
 30
0.0
 40
2.5
  1
[
 50
0.0
 41
1.0
  7
textstyle27
 71
0
 72
1
 11
259.0
 21
65.0
 31
0.0
100
AcDbText
 73
1
  0
TEXT
  5
18A
100
AcDbEntity
  8
labels_black
 62
256
370
70
 48
1.0
  6
ByLayer
100
AcDbText
 10
258.2261904761904816
 20
63.5
 30
0.0
 40
2.5
  1
{
 50
0.0
 41
1.0
  7
textstyle26
 71
0
 72
1
 11
259.0
 21
72.0
 31
0.0
100
AcDbText
 73
3
  0
TEXT
  5
18B
100
AcDbEntity
  8
labels_black
 62
256
370
70
 48
1.0
  6
ByLayer
100
AcDbText
 10
258.1071428571427759
 20
43.5
 30
0.0
 40
2.5
  1
}
 50
0.0
 41
1.0
  7
textstyle21
 71
0
 72
1
 11
259.0
 21
53.0
 31
0.0
100
AcDbText
 73
3
  0
TEXT
  5
18C
100
AcDbEntity
  8
labels_black
 62
256
370
70
 48
1.0
  6
ByLayer
100
AcDbText
 10
258.4047619047619264
 20
32.5
 30
0.0
 40
2.5
  1
'
 50
0.0
 41
1.0
  7
textstyle20
 71
0
 72
1
 11
259.0
 21
28.0
 31
0.0
100
AcDbText
 73
1
  0
TEXT
  5
18D
100
AcDbEntity
  8
labels_black
 62
256
370
70
 48
1.0
  6
ByLayer
100
AcDbText
 10
258.0476190476189799
 20
27.7142857142857189
 30
0.0
 40
2.5
  1
"
 50
0.0
 41
1.0
  7
textstyle23
 71
0
 72
1
 11
259.0
 21
34.0
 31
0.0
100
AcDbText
 73
3
  0
TEXT
  5
18E
100
AcDbEntity
  8
labels_black
 62
256
370
70
 48
1.0
  6
ByLayer
100
AcDbText
 10
258.0476190476189799
 20
8.7142857142857135
 30
0.0
 40
2.5
  1
_
 50
0.0
 41
1.0
  7
textstyle22
 71
0
 72
1
 11
259.0
 21
16.0
 31
0.0
100
AcDbText
 73
3
  0
TEXT
  5
18F
100
AcDbEntity
  8
labels_black
 62
256
370
70
 48
1.0
  6
ByLayer
100
AcDbText
 10
258.4523809523810201
 20
6.5
 30
0.0
 40
2.5
  1
-
 50
0.0
 41
1.0
  7
textstyle17
 71
0
 72
1
 11
259.0
 21
9.0
 31
0.0
100
AcDbText
 73
1
  0
TEXT
  5
190
100
AcDbEntity
  8
labels_black
 62
256
370
-1
 48
1.0
  6
ByLayer
100
AcDbText
 10
122.3690476190476062
 20
67.75
 30
0.0
 40
2.5
  1
ESC
 50
0.0
 41
1.0
  7
textstyle16
 71
0
 72
1
 11
126.0
 21
69.0
 31
0.0
100
AcDbText
 73
2
  0
TEXT
  5
191
100
AcDbEntity
  8
labels_black
 62
256
370
-1
 48
1.0
  6
ByLayer
100
AcDbText
 10
141.428571428571388
 20
67.75
 30
0.0
 40
2.5
  1
DEL
 50
0.0
 41
1.0
  7
textstyle19
 71
0
 72
1
 11
145.0
 21
69.0
 31
0.0
100
AcDbText
 73
2
  0
TEXT
  5
192
100
AcDbEntity
  8
labels_black
 62
256
370
-1
 48
1.0
  6
ByLayer
100
AcDbText
 10
124.75
 20
50.8333333333333286
 30
0.0
 40
2.5
  1
BACKSPACE
 50
270.0
 41
1.0
  7
textstyle18
 71
0
 72
1
 11
126.0
 21
40.0
 31
0.0
100
AcDbText
 73
2
  0
TEXT
  5
193
100
AcDbEntity
  8
labels_black
 62
256
370
-1
 48
1.0
  6
ByLayer
100
AcDbText
 10
146.25
 20
34.1666666666666572
 30
0.0
 40
2.5
  1
ENTER
 50
90.0
 41
1.0
  7
textstyle77
 71
0
 72
1
 11
145.0
 21
40.0
 31
0.0
100
AcDbText
 73
2
  0
TEXT
  5
194
100
AcDbEntity
  8
labels_black
 62
256
370
-1
 48
1.0
  6
ByLayer
100
AcDbText
 10
25.8809523809523796
 20
10.75
 30
0.0
 40
2.5
  1
SHIFT
 50
0.0
 41
1.0
  7
textstyle76
 71
0
 72
1
 11
31.0
 21
12.0
 31
0.0
100
AcDbText
 73
2
  0
TEXT
  5
195
100
AcDbEntity
  8
labels_black
 62
256
370
-1
 48
1.0
  6
ByLayer
100
AcDbText
 10
234.880952380952408
 20
10.75
 30
0.0
 40
2.5
  1
SHIFT
 50
0.0
 41
1.0
  7
textstyle79
 71
0
 72
1
 11
240.0
 21
12.0
 31
0.0
100
AcDbText
 73
2
  0
TEXT
  5
196
100
AcDbEntity
  8
labels_black
 62
256
370
-1
 48
1.0
  6
ByLayer
100
AcDbText
 10
214.869047619047592
 20
10.75
 30
0.0
 40
2.5
  1
SUPER
 50
0.0
 41
1.0
  7
textstyle78
 71
0
 72
1
 11
221.0
 21
12.0
 31
0.0
100
AcDbText
 73
2
  0
TEXT
  5
197
100
AcDbEntity
  8
labels_black
 62
256
370
-1
 48
1.0
  6
ByLayer
100
AcDbText
 10
43.8690476190476204
 20
10.75
 30
0.0
 40
2.5
  1
SUPER
 50
0.0
 41
1.0
  7
textstyle73
 71
0
 72
1
 11
50.0
 21
12.0
 31
0.0
100
AcDbText
 73
2
  0
TEXT
  5
198
100
AcDbEntity
  8
labels_black
 62
256
370
-1
 48
1.0
  6
ByLayer
100
AcDbText
 10
65.9642857142857082
 20
10.75
 30
0.0
 40
2.5
  1
ALT
 50
0.0
 41
1.0
  7
textstyle72
 71
0
 72
1
 11
69.0
 21
12.0
 31
0.0
100
AcDbText
 73
2
  0
TEXT
  5
199
100
AcDbEntity
  8
labels_black
 62
256
370
-1
 48
1.0
  6
ByLayer
100
AcDbText
 10
198.964285714285694
 20
10.75
 30
0.0
 40
2.5
  1
ALT
 50
0.0
 41
1.0
  7
textstyle75
 71
0
 72
1
 11
202.0
 21
12.0
 31
0.0
100
AcDbText
 73
2
  0
TEXT
  5
19A
100
AcDbEntity
  8
labels_black
 62
256
370
-1
 48
1.0
  6
ByLayer
100
AcDbText
 10
178.416666666666714
 20
10.75
 30
0.0
 40
2.5
  1
CTRL
 50
0.0
 41
1.0
  7
textstyle74
 71
0
 72
1
 11
183.0
 21
12.0
 31
0.0
100
AcDbText
 73
2
  0
TEXT
  5
19B
100
AcDbEntity
  8
labels_black
 62
256
370
-1
 48
1.0
  6
ByLayer
100
AcDbText
 10
83.4166666666666714
 20
10.75
 30
0.0
 40
2.5
  1
CTRL
 50
0.0
 41
1.0
  7
textstyle69
 71
0
 72
1
 11
88.0
 21
12.0
 31
0.0
100
AcDbText
 73
2
  0
TEXT
  5
19C
100
AcDbEntity
  8
labels_black
 62
256
370
-1
 48
1.0
  6
ByLayer
100
AcDbText
 10
101.7619047619048018
 20
10.75
 30
0.0
 40
2.5
  1
RAISE
 50
0.0
 41
1.0
  7
textstyle68
 71
0
 72
1
 11
107.0
 21
12.0
 31
0.0
100
AcDbText
 73
2
  0
TEXT
  5
19D
100
AcDbEntity
  8
labels_black
 62
256
370
-1
 48
1.0
  6
ByLayer
100
AcDbText
 10
157.809523809523796
 20
10.75
 30
0.0
 40
2.5
  1
LOWER
 50
0.0
 41
1.0
  7
textstyle71
 71
0
 72
1
 11
164.0
 21
12.0
 31
0.0
100
AcDbText
 73
2
  0
TEXT
  5
19E
100
AcDbEntity
  8
labels_white
 62
256
370
70
 48
1.0
  6
ByLayer
100
AcDbText
 10
236.8571428571428896
 20
27.0
 30
0.0
 40
2.5
  1
/
 50
0.0
 41
1.0
  7
textstyle70
 71
0
 72
1
 11
240.0
 21
27.0
 31
0.0
100
AcDbText
 73
1
  0
TEXT
  5
19F
100
AcDbEntity
  8
labels_white
 62
256
370
70
 48
1.0
  6
ByLayer
100
AcDbText
 10
237.428571428571388
 20
35.7142857142857224
 30
0.0
 40
2.5
  1
?
 50
0.0
 41
1.0
  7
textstyle65
 71
0
 72
1
 11
240.0
 21
34.0
 31
0.0
100
AcDbText
 73
3
  0
TEXT
  5
1A0
100
AcDbEntity
  8
ns_w
 62
256
370
-1
 48
1.0
  6
ByLayer
100
AcDbText
 10
27.8571428571428612
 20
66.0
 30
0.0
 40
6.0
  1
Q
 50
0.0
 41
1.0
  7
textstyle64
 71
0
 72
1
 11
31.0
 21
69.0
 31
0.0
100
AcDbText
 73
2
  0
TEXT
  5
1A1
100
AcDbEntity
  8
ns_w
 62
256
370
-1
 48
1.0
  6
ByLayer
100
AcDbText
 10
46.5714285714285694
 20
66.0
 30
0.0
 40
6.0
  1
W
 50
0.0
 41
1.0
  7
textstyle67
 71
0
 72
1
 11
50.0
 21
69.0
 31
0.0
100
AcDbText
 73
2
  0
TEXT
  5
1A2
100
AcDbEntity
  8
ns_w
 62
256
370
-1
 48
1.0
  6
ByLayer
100
AcDbText
 10
66.0
 20
66.0
 30
0.0
 40
6.0
  1
E
 50
0.0
 41
1.0
  7
textstyle66
 71
0
 72
1
 11
69.0
 21
69.0
 31
0.0
100
AcDbText
 73
2
  0
TEXT
  5
1A3
100
AcDbEntity
  8
ns_w
 62
256
370
-1
 48
1.0
  6
ByLayer
100
AcDbText
 10
84.8571428571428612
 20
66.0
 30
0.0
 40
6.0
  1
R
 50
0.0
 41
1.0
  7
textstyle61
 71
0
 72
1
 11
88.0
 21
69.0
 31
0.0
100
AcDbText
 73
2
  0
TEXT
  5
1A4
100
AcDbEntity
  8
ns_w
 62
256
370
-1
 48
1.0
  6
ByLayer
100
AcDbText
 10
104.714285714285694
 20
66.0
 30
0.0
 40
6.0
  1
T
 50
0.0
 41
1.0
  7
textstyle60
 71
0
 72
1
 11
107.0
 21
69.0
 31
0.0
100
AcDbText
 73
2
  0
TEXT
  5
1A5
100
AcDbEntity
  8
ns_w
 62
256
370
-1
 48
1.0
  6
ByLayer
100
AcDbText
 10
161.428571428571388
 20
66.0
 30
0.0
 40
6.0
  1
Y
 50
0.0
 41
1.0
  7
textstyle63
 71
0
 72
1
 11
164.0
 21
69.0
 31
0.0
100
AcDbText
 73
2
  0
TEXT
  5
1A6
100
AcDbEntity
  8
ns_w
 62
256
370
-1
 48
1.0
  6
ByLayer
100
AcDbText
 10
179.8571428571428896
 20
66.0
 30
0.0
 40
6.0
  1
U
 50
0.0
 41
1.0
  7
textstyle62
 71
0
 72
1
 11
183.0
 21
69.0
 31
0.0
100
AcDbText
 73
2
  0
TEXT
  5
1A7
100
AcDbEntity
  8
ns_w
 62
256
370
-1
 48
1.0
  6
ByLayer
100
AcDbText
 10
200.8571428571428896
 20
66.0
 30
0.0
 40
6.0
  1
I
 50
0.0
 41
1.0
  7
textstyle57
 71
0
 72
1
 11
202.0
 21
69.0
 31
0.0
100
AcDbText
 73
2
  0
TEXT
  5
1A8
100
AcDbEntity
  8
ns_w
 62
256
370
-1
 48
1.0
  6
ByLayer
100
AcDbText
 10
217.8571428571428896
 20
66.0
 30
0.0
 40
6.0
  1
O
 50
0.0
 41
1.0
  7
textstyle56
 71
0
 72
1
 11
221.0
 21
69.0
 31
0.0
100
AcDbText
 73
2
  0
TEXT
  5
1A9
100
AcDbEntity
  8
ns_w
 62
256
370
-1
 48
1.0
  6
ByLayer
100
AcDbText
 10
236.8571428571428896
 20
66.0
 30
0.0
 40
6.0
  1
P
 50
0.0
 41
1.0
  7
textstyle59
 71
0
 72
1
 11
240.0
 21
69.0
 31
0.0
100
AcDbText
 73
2
  0
TEXT
  5
1AA
100
AcDbEntity
  8
ns_w
 62
256
370
-1
 48
1.0
  6
ByLayer
100
AcDbText
 10
28.4285714285714306
 20
47.0
 30
0.0
 40
6.0
  1
A
 50
0.0
 41
1.0
  7
textstyle58
 71
0
 72
1
 11
31.0
 21
50.0
 31
0.0
100
AcDbText
 73
2
  0
TEXT
  5
1AB
100
AcDbEntity
  8
ns_w
 62
256
370
-1
 48
1.0
  6
ByLayer
100
AcDbText
 10
47.142857142857153
 20
47.0
 30
0.0
 40
6.0
  1
S
 50
0.0
 41
1.0
  7
textstyle53
 71
0
 72
1
 11
50.0
 21
50.0
 31
0.0
100
AcDbText
 73
2
  0
TEXT
  5
1AC
100
AcDbEntity
  8
ns_w
 62
256
370
-1
 48
1.0
  6
ByLayer
100
AcDbText
 10
65.8571428571428612
 20
47.0
 30
0.0
 40
6.0
  1
D
 50
0.0
 41
1.0
  7
textstyle52
 71
0
 72
1
 11
69.0
 21
50.0
 31
0.0
100
AcDbText
 73
2
  0
TEXT
  5
1AD
100
AcDbEntity
  8
ns_w
 62
256
370
-1
 48
1.0
  6
ByLayer
100
AcDbText
 10
85.0
 20
47.0
 30
0.0
 40
6.0
  1
F
 50
0.0
 41
1.0
  7
textstyle55
 71
0
 72
1
 11
88.0
 21
50.0
 31
0.0
100
AcDbText
 73
2
  0
TEXT
  5
1AE
100
AcDbEntity
  8
ns_w
 62
256
370
-1
 48
1.0
  6
ByLayer
100
AcDbText
 10
104.0
 20
47.0
 30
0.0
 40
6.0
  1
G
 50
0.0
 41
1.0
  7
textstyle54
 71
0
 72
1
 11
107.0
 21
50.0
 31
0.0
100
AcDbText
 73
2
  0
TEXT
  5
1AF
100
AcDbEntity
  8
ns_w
 62
256
370
-1
 48
1.0
  6
ByLayer
100
AcDbText
 10
160.8571428571428896
 20
47.0
 30
0.0
 40
6.0
  1
H
 50
0.0
 41
1.0
  7
textstyle49
 71
0
 72
1
 11
164.0
 21
50.0
 31
0.0
100
AcDbText
 73
2
  0
TEXT
  5
1B0
100
AcDbEntity
  8
ns_w
 62
256
370
-1
 48
1.0
  6
ByLayer
100
AcDbText
 10
181.0
 20
47.0
 30
0.0
 40
6.0
  1
J
 50
0.0
 41
1.0
  7
textstyle48
 71
0
 72
1
 11
183.0
 21
50.0
 31
0.0
100
AcDbText
 73
2
  0
TEXT
  5
1B1
100
AcDbEntity
  8
ns_w
 62
256
370
-1
 48
1.0
  6
ByLayer
100
AcDbText
 10
198.8571428571428896
 20
47.0
 30
0.0
 40
6.0
  1
K
 50
0.0
 41
1.0
  7
textstyle51
 71
0
 72
1
 11
202.0
 21
50.0
 31
0.0
100
AcDbText
 73
2
  0
TEXT
  5
1B2
100
AcDbEntity
  8
ns_w
 62
256
370
-1
 48
1.0
  6
ByLayer
100
AcDbText
 10
218.1428571428571104
 20
47.0
 30
0.0
 40
6.0
  1
L
 50
0.0
 41
1.0
  7
textstyle50
 71
0
 72
1
 11
221.0
 21
50.0
 31
0.0
100
AcDbText
 73
2
  0
TEXT
  5
1B3
100
AcDbEntity
  8
ns_w
 62
256
370
-1
 48
1.0
  6
ByLayer
100
AcDbText
 10
28.1428571428571388
 20
28.0
 30
0.0
 40
6.0
  1
Z
 50
0.0
 41
1.0
  7
textstyle109
 71
0
 72
1
 11
31.0
 21
31.0
 31
0.0
100
AcDbText
 73
2
  0
TEXT
  5
1B4
100
AcDbEntity
  8
ns_w
 62
256
370
-1
 48
1.0
  6
ByLayer
100
AcDbText
 10
47.142857142857153
 20
28.0
 30
0.0
 40
6.0
  1
X
 50
0.0
 41
1.0
  7
textstyle108
 71
0
 72
1
 11
50.0
 21
31.0
 31
0.0
100
AcDbText
 73
2
  0
TEXT
  5
1B5
100
AcDbEntity
  8
ns_w
 62
256
370
-1
 48
1.0
  6
ByLayer
100
AcDbText
 10
66.0
 20
28.0
 30
0.0
 40
6.0
  1
C
 50
0.0
 41
1.0
  7
textstyle111
 71
0
 72
1
 11
69.0
 21
31.0
 31
0.0
100
AcDbText
 73
2
  0
TEXT
  5
1B6
100
AcDbEntity
  8
ns_w
 62
256
370
-1
 48
1.0
  6
ByLayer
100
AcDbText
 10
85.4285714285714306
 20
28.0
 30
0.0
 40
6.0
  1
V
 50
0.0
 41
1.0
  7
textstyle110
 71
0
 72
1
 11
88.0
 21
31.0
 31
0.0
100
AcDbText
 73
2
  0
TEXT
  5
1B7
100
AcDbEntity
  8
ns_w
 62
256
370
-1
 48
1.0
  6
ByLayer
100
AcDbText
 10
103.8571428571429038
 20
28.0
 30
0.0
 40
6.0
  1
B
 50
0.0
 41
1.0
  7
textstyle105
 71
0
 72
1
 11
107.0
 21
31.0
 31
0.0
100
AcDbText
 73
2
  0
TEXT
  5
1B8
100
AcDbEntity
  8
ns_w
 62
256
370
-1
 48
1.0
  6
ByLayer
100
AcDbText
 10
160.8571428571428896
 20
28.0
 30
0.0
 40
6.0
  1
N
 50
0.0
 41
1.0
  7
textstyle104
 71
0
 72
1
 11
164.0
 21
31.0
 31
0.0
100
AcDbText
 73
2
  0
TEXT
  5
1B9
100
AcDbEntity
  8
ns_w
 62
256
370
-1
 48
1.0
  6
ByLayer
100
AcDbText
 10
179.571428571428612
 20
28.0
 30
0.0
 40
6.0
  1
M
 50
0.0
 41
1.0
  7
textstyle107
 71
0
 72
1
 11
183.0
 21
31.0
 31
0.0
100
AcDbText
 73
2
  0
TEXT
  5
1BA
100
AcDbEntity
  8
ns_w
 62
256
370
-1
 48
1.0
  6
ByLayer
100
AcDbText
 10
239.0476190476190084
 20
51.0
 30
0.0
 40
4.0
  1
:
 50
0.0
 41
1.0
  7
textstyle106
 71
0
 72
1
 11
240.0
 21
55.0
 31
0.0
100
AcDbText
 73
3
  0
TEXT
  5
1BB
100
AcDbEntity
  8
ns_w
 62
256
370
-1
 48
1.0
  6
ByLayer
100
AcDbText
 10
239.0476190476190084
 20
47.142857142857153
 30
0.0
 40
4.0
  1
;
 50
0.0
 41
1.0
  7
textstyle101
 71
0
 72
1
 11
240.0
 21
46.0
 31
0.0
100
AcDbText
 73
1
  0
TEXT
  5
1BC
100
AcDbEntity
  8
ns_w
 62
256
370
-1
 48
1.0
  6
ByLayer
100
AcDbText
 10
199.714285714285694
 20
31.0
 30
0.0
 40
4.0
  1
<
 50
0.0
 41
1.0
  7
textstyle100
 71
0
 72
1
 11
202.0
 21
35.0
 31
0.0
100
AcDbText
 73
3
  0
TEXT
  5
1BD
100
AcDbEntity
  8
ns_w
 62
256
370
-1
 48
1.0
  6
ByLayer
100
AcDbText
 10
200.809523809523796
 20
29.4285714285714306
 30
0.0
 40
5.0
  1
,
 50
0.0
 41
1.0
  7
textstyle103
 71
0
 72
1
 11
202.0
 21
28.0
 31
0.0
100
AcDbText
 73
1
  0
TEXT
  5
1BE
100
AcDbEntity
  8
ns_w
 62
256
370
-1
 48
1.0
  6
ByLayer
100
AcDbText
 10
219.809523809523796
 20
29.4285714285714306
 30
0.0
 40
5.0
  1
.
 50
0.0
 41
1.0
  7
textstyle102
 71
0
 72
1
 11
221.0
 21
28.0
 31
0.0
100
AcDbText
 73
1
  0
TEXT
  5
1BF
100
AcDbEntity
  8
ns_w
 62
256
370
-1
 48
1.0
  6
ByLayer
100
AcDbText
 10
218.714285714285694
 20
31.0
 30
0.0
 40
4.0
  1
>
 50
0.0
 41
1.0
  7
textstyle97
 71
0
 72
1
 11
221.0
 21
35.0
 31
0.0
100
AcDbText
 73
3
  0
TEXT
  5
1C0
100
AcDbEntity
  8
ns_w
 62
256
370
-1
 48
1.0
  6
ByLayer
100
AcDbText
 10
238.5
 20
31.5
 30
0.0
 40
3.5
  1
?
 50
0.0
 41
1.0
  7
textstyle96
 71
0
 72
1
 11
240.0
 21
35.0
 31
0.0
100
AcDbText
 73
3
  0
TEXT
  5
1C1
100
AcDbEntity
  8
ns_w
 62
256
370
-1
 48
1.0
  6
ByLayer
100
AcDbText
 10
238.166666666666714
 20
28.0
 30
0.0
 40
3.5
  1
/
 50
0.0
 41
1.0
  7
textstyle99
 71
0
 72
1
 11
240.0
 21
27.0
 31
0.0
100
AcDbText
 73
1
  0
TEXT
  5
1C2
100
AcDbEntity
  8
ns_b
 62
256
370
-1
 48
1.0
  6
ByLayer
100
AcDbText
 10
257.75
 20
66.0
 30
0.0
 40
3.5
  1
[
 50
0.0
 41
1.0
  7
textstyle98
 71
0
 72
1
 11
259.0
 21
65.0
 31
0.0
100
AcDbText
 73
1
  0
TEXT
  5
1C3
100
AcDbEntity
  8
ns_b
 62
256
370
-1
 48
1.0
  6
ByLayer
100
AcDbText
 10
257.9166666666666856
 20
69.5
 30
0.0
 40
3.5
  1
{
 50
0.0
 41
1.0
  7
textstyle93
 71
0
 72
1
 11
259.0
 21
73.0
 31
0.0
100
AcDbText
 73
3
  0
TEXT
  5
1C4
100
AcDbEntity
  8
ns_b
 62
256
370
-1
 48
1.0
  6
ByLayer
100
AcDbText
 10
257.75
 20
50.5
 30
0.0
 40
3.5
  1
}
 50
0.0
 41
1.0
  7
textstyle92
 71
0
 72
1
 11
259.0
 21
54.0
 31
0.0
100
AcDbText
 73
3
  0
TEXT
  5
1C5
100
AcDbEntity
  8
ns_b
 62
256
370
-1
 48
1.0
  6
ByLayer
100
AcDbText
 10
257.9166666666666856
 20
47.0
 30
0.0
 40
3.5
  1
]
 50
0.0
 41
1.0
  7
textstyle95
 71
0
 72
1
 11
259.0
 21
46.0
 31
0.0
100
AcDbText
 73
1
  0
TEXT
  5
1C6
100
AcDbEntity
  8
ns_b
 62
256
370
-1
 48
1.0
  6
ByLayer
100
AcDbText
 10
258.1666666666666856
 20
28.0
 30
0.0
 40
3.5
  1
'
 50
0.0
 41
1.0
  7
textstyle94
 71
0
 72
1
 11
259.0
 21
27.0
 31
0.0
100
AcDbText
 73
1
  0
TEXT
  5
1C7
100
AcDbEntity
  8
ns_b
 62
256
370
-1
 48
1.0
  6
ByLayer
100
AcDbText
 10
257.6666666666666856
 20
31.5
 30
0.0
 40
3.5
  1
"
 50
0.0
 41
1.0
  7
textstyle89
 71
0
 72
1
 11
259.0
 21
35.0
 31
0.0
100
AcDbText
 73
3
  0
TEXT
  5
1C8
100
AcDbEntity
  8
ns_b
 62
256
370
-1
 48
1.0
  6
ByLayer
100
AcDbText
 10
256.8333333333333144
 20
9.0
 30
0.0
 40
3.5
  1
-
 50
0.0
 41
1.0
  7
textstyle88
 71
0
 72
1
 11
259.0
 21
8.0
 31
0.0
100
AcDbText
 73
1
  0
TEXT
  5
1C9
100
AcDbEntity
  8
ns_b
 62
256
370
-1
 48
1.0
  6
ByLayer
100
AcDbText
 10
257.6666666666666856
 20
12.5
 30
0.0
 40
3.5
  1
_
 50
0.0
 41
1.0
  7
textstyle91
 71
0
 72
1
 11
259.0
 21
16.0
 31
0.0
100
AcDbText
 73
3
  0
TEXT
  5
1CA
100
AcDbEntity
  8
ns_b
 62
256
370
-1
 48
1.0
  6
ByLayer
100
AcDbText
 10
121.4166666666666998
 20
67.25
 30
0.0
 40
3.5
  1
Esc
 50
0.0
 41
1.0
  7
textstyle90
 71
0
 72
1
 11
126.0
 21
69.0
 31
0.0
100
AcDbText
 73
2
  0
TEXT
  5
1CB
100
AcDbEntity
  8
ns_b
 62
256
370
-1
 48
1.0
  6
ByLayer
100
AcDbText
 10
141.083333333333286
 20
67.25
 30
0.0
 40
3.5
  1
Del
 50
0.0
 41
1.0
  7
textstyle85
 71
0
 72
1
 11
145.0
 21
69.0
 31
0.0
100
AcDbText
 73
2
  0
TEXT
  5
1CC
100
AcDbEntity
  8
ns_b
 62
256
370
-1
 48
1.0
  6
ByLayer
100
AcDbText
 10
148.0
 20
26.5
 30
0.0
 40
6.0
  1
ENTER
 50
90.0
 41
1.0
  7
textstyle84
 71
0
 72
1
 11
145.0
 21
40.5
 31
0.0
100
AcDbText
 73
2
  0
TEXT
  5
1CD
100
AcDbEntity
  8
ns_b
 62
256
370
-1
 48
1.0
  6
ByLayer
100
AcDbText
 10
124.0499999999999972
 20
57.3999999999999986
 30
0.0
 40
3.8999999999999999
  1
BACKSPACE
 50
270.0
 41
1.0
  7
textstyle87
 71
0
 72
1
 11
126.0
 21
40.5
 31
0.0
100
AcDbText
 73
2
  0
TEXT
  5
1CE
100
AcDbEntity
  8
ns_b
 62
256
370
-1
 48
1.0
  6
ByLayer
100
AcDbText
 10
10.0
 20
70.5
 30
0.0
 40
3.5
  1
~
 50
0.0
 41
1.0
  7
textstyle86
 71
0
 72
1
 11
12.0
 21
74.0
 31
0.0
100
AcDbText
 73
3
  0
TEXT
  5
1CF
100
AcDbEntity
  8
ns_b
 62
256
370
-1
 48
1.0
  6
ByLayer
100
AcDbText
 10
11.1666666666666696
 20
66.0
 30
0.0
 40
3.5
  1
`
 50
0.0
 41
1.0
  7
textstyle81
 71
0
 72
1
 11
12.0
 21
65.0
 31
0.0
100
AcDbText
 73
1
  0
TEXT
  5
1D0
100
AcDbEntity
  8
ns_b
 62
256
370
-1
 48
1.0
  6
ByLayer
100
AcDbText
 10
7.666666666666667
 20
48.25
 30
0.0
 40
3.5
  1
Tab
 50
0.0
 41
1.0
  7
textstyle80
 71
0
 72
1
 11
12.0
 21
50.0
 31
0.0
100
AcDbText
 73
2
  0
TEXT
  5
1D1
100
AcDbEntity
  8
ns_b
 62
256
370
-1
 48
1.0
  6
ByLayer
100
AcDbText
 10
6.1428571428571432
 20
29.5
 30
0.0
 40
3.0
  1
PgUp
 50
0.0
 41
1.0
  7
textstyle83
 71
0
 72
1
 11
12.0
 21
31.0
 31
0.0
100
AcDbText
 73
2
  0
TEXT
  5
1D2
100
AcDbEntity
  8
ns_b
 62
256
370
-1
 48
1.0
  6
ByLayer
100
AcDbText
 10
6.2857142857142856
 20
10.5
 30
0.0
 40
3.0
  1
PgDn
 50
0.0
 41
1.0
  7
textstyle82
 71
0
 72
1
 11
12.0
 21
12.0
 31
0.0
100
AcDbText
 73
2
  0
TEXT
  5
1D3
100
AcDbEntity
  8
ns_b
 62
256
370
-1
 48
1.0
  6
ByLayer
100
AcDbText
 10
25.8809523809523796
 20
10.75
 30
0.0
 40
2.5
  1
SHIFT
 50
0.0
 41
1.0
  7
textstyle120
 71
0
 72
1
 11
31.0
 21
12.0
 31
0.0
100
AcDbText
 73
2
  0
TEXT
  5
1D4
100
AcDbEntity
  8
ns_b
 62
256
370
-1
 48
1.0
  6
ByLayer
100
AcDbText
 10
43.8690476190476204
 20
10.75
 30
0.0
 40
2.5
  1
SUPER
 50
0.0
 41
1.0
  7
textstyle119
 71
0
 72
1
 11
50.0
 21
12.0
 31
0.0
100
AcDbText
 73
2
  0
TEXT
  5
1D5
100
AcDbEntity
  8
ns_b
 62
256
370
-1
 48
1.0
  6
ByLayer
100
AcDbText
 10
65.9642857142857082
 20
10.75
 30
0.0
 40
2.5
  1
ALT
 50
0.0
 41
1.0
  7
textstyle122
 71
0
 72
1
 11
69.0
 21
12.0
 31
0.0
100
AcDbText
 73
2
  0
TEXT
  5
1D6
100
AcDbEntity
  8
ns_b
 62
256
370
-1
 48
1.0
  6
ByLayer
100
AcDbText
 10
83.4166666666666714
 20
10.75
 30
0.0
 40
2.5
  1
CTRL
 50
0.0
 41
1.0
  7
textstyle121
 71
0
 72
1
 11
88.0
 21
12.0
 31
0.0
100
AcDbText
 73
2
  0
TEXT
  5
1D7
100
AcDbEntity
  8
ns_b
 62
256
370
-1
 48
1.0
  6
ByLayer
100
AcDbText
 10
178.416666666666714
 20
10.75
 30
0.0
 40
2.5
  1
CTRL
 50
0.0
 41
1.0
  7
textstyle116
 71
0
 72
1
 11
183.0
 21
12.0
 31
0.0
100
AcDbText
 73
2
  0
TEXT
  5
1D8
100
AcDbEntity
  8
ns_b
 62
256
370
-1
 48
1.0
  6
ByLayer
100
AcDbText
 10
198.964285714285694
 20
10.75
 30
0.0
 40
2.5
  1
ALT
 50
0.0
 41
1.0
  7
textstyle115
 71
0
 72
1
 11
202.0
 21
12.0
 31
0.0
100
AcDbText
 73
2
  0
TEXT
  5
1D9
100
AcDbEntity
  8
ns_b
 62
256
370
-1
 48
1.0
  6
ByLayer
100
AcDbText
 10
214.869047619047592
 20
10.75
 30
0.0
 40
2.5
  1
SUPER
 50
0.0
 41
1.0
  7
textstyle118
 71
0
 72
1
 11
221.0
 21
12.0
 31
0.0
100
AcDbText
 73
2
  0
TEXT
  5
1DA
100
AcDbEntity
  8
ns_b
 62
256
370
-1
 48
1.0
  6
ByLayer
100
AcDbText
 10
234.880952380952408
 20
10.75
 30
0.0
 40
2.5
  1
SHIFT
 50
0.0
 41
1.0
  7
textstyle117
 71
0
 72
1
 11
240.0
 21
12.0
 31
0.0
100
AcDbText
 73
2
  0
TEXT
  5
1DB
100
AcDbEntity
  8
ns_b
 62
256
370
-1
 48
1.0
  6
ByLayer
100
AcDbText
 10
100.809523809523796
 20
10.75
 30
0.0
 40
2.5
  1
LOWER
 50
0.0
 41
1.0
  7
textstyle113
 71
0
 72
1
 11
107.0
 21
12.0
 31
0.0
100
AcDbText
 73
2
  0
TEXT
  5
1DC
100
AcDbEntity
  8
ns_b
 62
256
370
-1
 48
1.0
  6
ByLayer
100
AcDbText
 10
158.7619047619047876
 20
10.75
 30
0.0
 40
2.5
  1
RAISE
 50
0.0
 41
1.0
  7
textstyle112
 71
0
 72
1
 11
164.0
 21
12.0
 31
0.0
100
AcDbText
 73
2
  0
TEXT
  5
1DD
100
AcDbEntity
  8
ns_b
 62
256
370
-1
 48
1.0
  6
ByLayer
100
AcDbText
 10
120.3571428571429038
 20
10.0
 30
0.0
 40
4.0
  1
SPACEBAR
 50
0.0
 41
1.0
  7
textstyle114
 71
0
 72
1
 11
135.5
 21
12.0
 31
0.0
100
AcDbText
 73
2
  0
ENDSEC
  0
SECTION
  2
OBJECTS
  0
DICTIONARY
  5
C
100
AcDbDictionary
280
0
281
1
  3
ACAD_GROUP
350
D
  3
ACAD_LAYOUT
350
1A
  3
ACAD_MLINESTYLE
350
17
  3
ACAD_PLOTSETTINGS
350
19
  3
ACAD_PLOTSTYLENAME
350
E
  3
AcDbVariableDictionary
350
1DE
  3
QCAD_OBJECTS
350
1DF
  0
DICTIONARY
  5
D
100
AcDbDictionary
280
0
281
1
  0
ACDBDICTIONARYWDFLT
  5
E
100
AcDbDictionary
281
1
  3
Normal
350
F
100
AcDbDictionaryWithDefault
340
F
  0
ACDBPLACEHOLDER
  5
F
  0
DICTIONARY
  5
17
100
AcDbDictionary
280
0
281
1
  3
Standard
350
18
  0
MLINESTYLE
  5
18
100
AcDbMlineStyle
  2
STANDARD
 70
0
  3

 62
256
 51
90.0
 52
90.0
 71
2
 49
0.5
 62
256
  6
BYLAYER
 49
-0.5
 62
256
  6
BYLAYER
  0
DICTIONARY
  5
19
100
AcDbDictionary
280
0
281
1
  0
DICTIONARY
  5
1A
100
AcDbDictionary
281
1
  3
Layout1
350
1E
  3
Layout2
350
26
  3
Model
350
22
  0
LAYOUT
  5
1E
100
AcDbPlotSettings
  1

  2
none_device
  4

  6

 40
0.0
 41
0.0
 42
0.0
 43
0.0
 44
0.0
 45
0.0
 46
0.0
 47
0.0
 48
0.0
 49
0.0
140
0.0
141
0.0
142
1.0
143
1.0
 70
688
 72
0
 73
0
 74
5
  7

 75
16
147
1.0
148
0.0
149
0.0
100
AcDbLayout
  1
Layout1
 70
1
 71
1
 10
0.0
 20
0.0
 11
420.0
 21
297.0
 12
0.0
 22
0.0
 32
0.0
 14
100000000000000000000.0
 24
100000000000000000000.0
 34
100000000000000000000.0
 15
-100000000000000000000.0
 25
-100000000000000000000.0
 35
-100000000000000000000.0
146
0.0
 13
0.0
 23
0.0
 33
0.0
 16
1.0
 26
0.0
 36
0.0
 17
0.0
 27
1.0
 37
0.0
 76
0
330
1B
  0
LAYOUT
  5
22
100
AcDbPlotSettings
  1

  2
none_device
  4

  6

 40
0.0
 41
0.0
 42
0.0
 43
0.0
 44
0.0
 45
0.0
 46
0.0
 47
0.0
 48
0.0
 49
0.0
140
0.0
141
0.0
142
1.0
143
1.0
 70
1712
 72
0
 73
0
 74
0
  7

 75
0
147
1.0
148
0.0
149
0.0
100
AcDbLayout
  1
Model
 70
1
 71
0
 10
0.0
 20
0.0
 11
12.0
 21
9.0
 12
0.0
 22
0.0
 32
0.0
 14
0.0
 24
0.0
 34
0.0
 15
0.0
 25
0.0
 35
0.0
146
0.0
 13
0.0
 23
0.0
 33
0.0
 16
1.0
 26
0.0
 36
0.0
 17
0.0
 27
1.0
 37
0.0
 76
0
330
1F
  0
LAYOUT
  5
26
100
AcDbPlotSettings
  1

  2
none_device
  4

  6

 40
0.0
 41
0.0
 42
0.0
 43
0.0
 44
0.0
 45
0.0
 46
0.0
 47
0.0
 48
0.0
 49
0.0
140
0.0
141
0.0
142
1.0
143
1.0
 70
688
 72
0
 73
0
 74
5
  7

 75
16
147
1.0
148
0.0
149
0.0
100
AcDbLayout
  1
Layout2
 70
1
 71
2
 10
0.0
 20
0.0
 11
12.0
 21
9.0
 12
0.0
 22
0.0
 32
0.0
 14
0.0
 24
0.0
 34
0.0
 15
0.0
 25
0.0
 35
0.0
146
0.0
 13
0.0
 23
0.0
 33
0.0
 16
1.0
 26
0.0
 36
0.0
 17
0.0
 27
1.0
 37
0.0
 76
0
330
23
  0
DICTIONARY
  5
1DE
100
AcDbDictionary
281
1
  3
DIMASSOC
350
1E1
  3
HIDETEXT
350
1E0
  0
DICTIONARYVAR
  5
1E0
100
DictionaryVariables
280
0
  1
2
  0
DICTIONARYVAR
  5
1E1
100
DictionaryVariables
280
0
  1
1
  0
DICTIONARY
  5
1DF
100
AcDbDictionary
281
1
  3
ColorSettings/BackgroundColor
350
1E2
  3
ColorSettings/ColorMode
350
1E3
  3
Grid/DisplayGrid00
350
1E4
  3
Grid/DisplayGrid01
350
1E5
  3
Grid/DisplayGrid02
350
1E6
  3
Grid/DisplayGrid03
350
1E7
  3
Grid/GridSpacingX00
350
1E8
  3
Grid/GridSpacingX01
350
1E9
  3
Grid/GridSpacingX02
350
1EA
  3
Grid/GridSpacingX03
350
1EB
  3
Grid/GridSpacingY00
350
1EC
  3
Grid/GridSpacingY01
350
1ED
  3
Grid/GridSpacingY02
350
1EE
  3
Grid/GridSpacingY03
350
1EF
  3
Grid/IsometricGrid00
350
1F0
  3
Grid/IsometricGrid01
350
1F1
  3
Grid/IsometricGrid02
350
1F2
  3
Grid/IsometricGrid03
350
1F3
  3
Grid/IsometricProjection00
350
1F4
  3
Grid/IsometricProjection01
350
1F5
  3
Grid/IsometricProjection02
350
1F6
  3
Grid/IsometricProjection03
350
1F7
  3
Grid/MetaGridSpacingX00
350
1F8
  3
Grid/MetaGridSpacingX01
350
1F9
  3
Grid/MetaGridSpacingX02
350
1FA
  3
Grid/MetaGridSpacingX03
350
1FB
  3
Grid/MetaGridSpacingY00
350
1FC
  3
Grid/MetaGridSpacingY01
350
1FD
  3
Grid/MetaGridSpacingY02
350
1FE
  3
Grid/MetaGridSpacingY03
350
1FF
  3
MultiPageSettings/Columns
350
200
  3
MultiPageSettings/GlueMarginsBottom
350
201
  3
MultiPageSettings/GlueMarginsLeft
350
202
  3
MultiPageSettings/GlueMarginsRight
350
203
  3
MultiPageSettings/GlueMarginsTop
350
204
  3
MultiPageSettings/PrintCropMarks
350
205
  3
MultiPageSettings/Rows
350
206
  3
PageSettings/OffsetX
350
207
  3
PageSettings/OffsetY
350
208
  3
PageSettings/PageOrientation
350
209
  3
PageSettings/PaperHeight
350
20A
  3
PageSettings/PaperWidth
350
20B
  3
PageSettings/Scale
350
20C
  3
PageSettings/ShowPaperBorders
350
20D
  3
QCADVersion
350
20E
  3
UnitSettings/PaperUnit
350
20F
  3
ViewportCenter
350
210
  3
ViewportHeight
350
211
  3
ViewportWidth
350
212
  0
XRECORD
  5
1E2
330
1DF
100
AcDbXrecord
280
1
1000
#ffffff
  0
XRECORD
  5
1E3
330
1DF
100
AcDbXrecord
280
1
1000
FullColor
  0
XRECORD
  5
1E4
330
1DF
100
AcDbXrecord
280
1
290
1
  0
XRECORD
  5
1E5
330
1DF
100
AcDbXrecord
280
1
290
1
  0
XRECORD
  5
1E6
330
1DF
100
AcDbXrecord
280
1
290
1
  0
XRECORD
  5
1E7
330
1DF
100
AcDbXrecord
280
1
290
1
  0
XRECORD
  5
1E8
330
1DF
100
AcDbXrecord
280
1
1000
auto
  0
XRECORD
  5
1E9
330
1DF
100
AcDbXrecord
280
1
1000
auto
  0
XRECORD
  5
1EA
330
1DF
100
AcDbXrecord
280
1
1000
auto
  0
XRECORD
  5
1EB
330
1DF
100
AcDbXrecord
280
1
1000
auto
  0
XRECORD
  5
1EC
330
1DF
100
AcDbXrecord
280
1
1000
auto
  0
XRECORD
  5
1ED
330
1DF
100
AcDbXrecord
280
1
1000
auto
  0
XRECORD
  5
1EE
330
1DF
100
AcDbXrecord
280
1
1000
auto
  0
XRECORD
  5
1EF
330
1DF
100
AcDbXrecord
280
1
1000
auto
  0
XRECORD
  5
1F0
330
1DF
100
AcDbXrecord
280
1
290
0
  0
XRECORD
  5
1F1
330
1DF
100
AcDbXrecord
280
1
290
0
  0
XRECORD
  5
1F2
330
1DF
100
AcDbXrecord
280
1
290
0
  0
XRECORD
  5
1F3
330
1DF
100
AcDbXrecord
280
1
290
0
  0
XRECORD
  5
1F4
330
1DF
100
AcDbXrecord
280
1
 90
65537
  0
XRECORD
  5
1F5
330
1DF
100
AcDbXrecord
280
1
 90
65537
  0
XRECORD
  5
1F6
330
1DF
100
AcDbXrecord
280
1
 90
65537
  0
XRECORD
  5
1F7
330
1DF
100
AcDbXrecord
280
1
 90
65537
  0
XRECORD
  5
1F8
330
1DF
100
AcDbXrecord
280
1
1000
auto
  0
XRECORD
  5
1F9
330
1DF
100
AcDbXrecord
280
1
1000
auto
  0
XRECORD
  5
1FA
330
1DF
100
AcDbXrecord
280
1
1000
auto
  0
XRECORD
  5
1FB
330
1DF
100
AcDbXrecord
280
1
1000
auto
  0
XRECORD
  5
1FC
330
1DF
100
AcDbXrecord
280
1
1000
auto
  0
XRECORD
  5
1FD
330
1DF
100
AcDbXrecord
280
1
1000
auto
  0
XRECORD
  5
1FE
330
1DF
100
AcDbXrecord
280
1
1000
auto
  0
XRECORD
  5
1FF
330
1DF
100
AcDbXrecord
280
1
1000
auto
  0
XRECORD
  5
200
330
1DF
100
AcDbXrecord
280
1
 90
1
  0
XRECORD
  5
201
330
1DF
100
AcDbXrecord
280
1
 40
10.0
  0
XRECORD
  5
202
330
1DF
100
AcDbXrecord
280
1
 40
10.0
  0
XRECORD
  5
203
330
1DF
100
AcDbXrecord
280
1
 40
10.0
  0
XRECORD
  5
204
330
1DF
100
AcDbXrecord
280
1
 40
10.0
  0
XRECORD
  5
205
330
1DF
100
AcDbXrecord
280
1
290
0
  0
XRECORD
  5
206
330
1DF
100
AcDbXrecord
280
1
 90
1
  0
XRECORD
  5
207
330
1DF
100
AcDbXrecord
280
1
 40
-12.6139050389806808
  0
XRECORD
  5
208
330
1DF
100
AcDbXrecord
280
1
 40
-14.3076550674891791
  0
XRECORD
  5
209
330
1DF
100
AcDbXrecord
280
1
1000
Landscape
  0
XRECORD
  5
20A
330
1DF
100
AcDbXrecord
280
1
 40
297.0
  0
XRECORD
  5
20B
330
1DF
100
AcDbXrecord
280
1
 40
210.0
  0
XRECORD
  5
20C
330
1DF
100
AcDbXrecord
280
1
1000
1:1
  0
XRECORD
  5
20D
330
1DF
100
AcDbXrecord
280
1
290
1
  0
XRECORD
  5
20E
330
1DF
100
AcDbXrecord
280
1
1000
3.23.0
  0
XRECORD
  5
20F
330
1DF
100
AcDbXrecord
280
1
 90
4
  0
XRECORD
  5
211
330
1DF
100
AcDbXrecord
280
1
 40
170.4816211038915412
  0
XRECORD
  5
212
330
1DF
100
AcDbXrecord
280
1
 40
305.4160105733546402
  0
ENDSEC
  0
EOF
